» » »

Jake Bugg - On My One Tabs

Artists:  A B C D E F G H I J K L M N O P Q R S T U V W X Y Z # 

On My One Tabs

(ver. 1) Click to play this song!
Jake Bugg
 Rating:
4.3/5 (15 votes)

 On My One  lessons Tabs too difficult? Try these video lessons and learn fast
 
                I'm just a poor boy...
D-----------|
A-----------|
F-----------|
C--2---2-2-2| (x12)
G---0h2---0-|
D-0-----0---|

...They're gone, they're gone...

D-----------|
A-----------|
F--2---2-2-2|
C---0h2---0-| (x02)
G-0-----0---|
D-----------|

...Three years on the road, 400 shows...

D-----------|
A-----------|
F-----------|
C--2---2-2-2| (x6)
G---0h2---0-|
D-0-----0---|

...Where do I belong...

D-----------|
A-----------|
F--2---2-2-2|
C---0h2---0-| (x02)
G-0-----0---|
D-----------|

...Every town has a stranger...

D-----------|
A-----------|
F-----------|
C--2---2-2-2| (x6)
G---0h2---0-|
D-0-----0---|


...where's God, where's God...

D-----------|
A-----------|
F--2---2-2-2|
C---0h2---0-| (x02)
G-0-----0---|
D-----------|
 
...He's even left me on my one...

D-----------|
A-----------|
F-----------|
C--2---2-2-2| (x2)
G---0h2---0-|
D-0-----0---|

...where's God, where's God...

D-----------|
A-----------|
F--2---2-2-2|
C---0h2---0-| (x02)
G-0-----0---|
D-----------|

...He's even left me on my one...

D-----------|
A-----------|
F-----------|
C--2---2-2-2| (x2)
G---0h2---0-|
D-0-----0---|


...I'm just a poor boy...

D-----------|
A-----------|
F-----------|
C--2---2-2-2| (x8)
G---0h2---0-|
D-0-----0---|

...They're gone, they're gone...

D-----------|
A-----------|
F--2---2-2-2|
C---0h2---0-| (x02)
G-0-----0---|
D-----------|

...Oh I'm so lonesome on my one...

D-----------|
A-----------|
F-----------|
C--2---2-2-2| (x9)
G---0h2---0-|
D-0-----0---|



            
Submit corrections


        On My One  lessons Hard to play? Try these video lessons and learn fast On My One  lessons
        
↑ Back to top | Tablatures and chords for acoustic guitar and electric guitar, ukulele, drums are parodies/interpretations of the original songs. You may use it for private study, scholarship, research or language learning purposes only