» » »

Jacob Whitesides - Lets Be Birds Tabs

Artists:  A B C D E F G H I J K L M N O P Q R S T U V W X Y Z # 

Lets Be Birds Tabs

(ver. 1) Click to play this song!
Jacob Whitesides
 Rating:
4.3/5 (22 votes)

 Lets Be Birds  lessons Tabs too difficult? Try these video lessons and learn fast
 
                E|-------------0-------------|
B|---1----3------------------|
G|-----------------0--------2|
D|---------------------------|  
A|---------------------------|
E|---------------------------|

E|------------0--------------|---------0-------------|
B|---1----3------------------|--------------3-----1--|
G|-----------------0--------2|-----------------------|
D|---------------------------|-----------------------|
A|---------------------------|-----------------------|
E|---------------------------|-----------------------|


This is pretty much the whole song, just keep repeating it. 
But once you get to the second verse it moves up and goes like this:

E|-------------12-------------|
B|---13----15-----------------|
G|----------------12------14--|
D|----------------------------|
A|----------------------------|
E|----------------------------|

E|-------------12------------|--------12-------------|
B|---13----15----------------|------------15------13-|
G|----------------12------14-|-----------------------|
D|---------------------------|-----------------------|
A|---------------------------|-----------------------|
E|---------------------------|-----------------------|

And then it starts back from the beginning             
Submit corrections


        Lets Be Birds  lessons Hard to play? Try these video lessons and learn fast Lets Be Birds  lessons
        
↑ Back to top | Tablatures and chords for acoustic guitar and electric guitar, ukulele, drums are parodies/interpretations of the original songs. You may use it for private study, scholarship, research or language learning purposes only