Home » J » Jack White »

Jack White - Sixteen Saltines Tabs

Artists:  A B C D E F G H I J K L M N O P Q R S T U V W X Y Z # 

Sixteen Saltines Tabs

(ver. 1) Click to play this song!
Jack White
[Solo]
e|-----------------------------------------------------------------------------------------------------------------------|
B|-----------------------------------------------------------------------------------------------------------------------|
G|-----------------------------------------------------------------------------------------------------------------------|
D|-9-9-9----------------------------------9-9-9--------------------------------------------------------------------------|
A|-------8-8-8-10-10-12-12-12-------------------8-8-8-10-10-12-12-12-----------------------------------------------------|
E|----------------------------10-10-10-12\---------------------------10-10-10-12\----------------------------------------|

e|---------------------------------------------------------------------------------------------------------------------------------|
B|---------------------------------------------------------------------------------------------------------------------------------|
G|---------------------------------------------------------------------------------------------------------------------------------|
D|----------------------------------------------------------------16=--------------------------------------------------------------|
A|----------------12----12-------15-------------------17----17-17=---17-14-17-17---------------------------------------------------|
E|-12-10-12p12b10----10----15-12----12-15-12/14-17-15----15------------------------------------------------------------------------|
            
Submit corrections

↑ Back to top | Tablatures and chords for acoustic guitar and electric guitar, ukulele, drums are parodies/interpretations of the original songs. You may use it for private study, scholarship, research or language learning purposes only