» » »

Jack White - Respect Commander Tabs

Artists:  A B C D E F G H I J K L M N O P Q R S T U V W X Y Z # 

Respect Commander Tabs

(ver. 1) Click to play this song!
Jack White
 Rating:
4.3/5 (15 votes)

 Respect Commander lessons Tabs too difficult? Try these video lessons and learn fast
 
                

[Part 1 – Instrumental] 

e|----------------------|----------------------|
B|----------------------|----------------------|
G|----------------------|----------------------|
D|--2-------------------|--2-------------------| x2
A|--2-------------------|--2-------------------| 
E|--0-----/5--3~~~------|--0-----5/7~~~--------|

N.C.
Let’s go back to our song

e|----------------------|----------------------|
B|----------------------|----------------------|
G|----------------------|---------12~~~--------|
D|----------------------|----------------------| x12
A|--2-2-2---------------|--2-2-2---------------|
E|--0-0-0—2/12----------|--0-0-0---------------|
         (slow slide up)

Organ:
e|----------------------|----------------------|
B|--3----2----1----0----|--3----2----1----0----|
G|--0----0----0----0----|--0----0----0----0----|
D|--2----2----2----2----|--2----2----2----2----| x2
A|--2----2----2----2----|--2----2----2----2----|
E|----------------------|----------------------|

Bass:
e|----------------------|----------------------|
B|----------------------|----------------------|
G|----------------------|----------------------|
D|----------------------|----------------------| x4
A|----------------------|----------------------| 
E|--0-0-0-3~~-0-0-0-7~~-|-0-0-0-3b5r3--0-0-0-7~|


[Part 2]

e|----------------------------------------------------|----------------------------------------------------|
B|----------------------------------------15-14---15--|----------------------------------------------------|
G|-pb16r14-12~~~--------------------------------------|-pb16r14-12~~~--------------------------------------|
D|----------------------------------------------------|----------------------------------------------------|
A|----------------------------------------------------|----------------------------------------------------|
E|----------------------------------------------------|----------------------------------------------------|
                          She commands my respect                         she commands my respect

e|----------------------------------------------------|----------------------------------------------------|
B|-15-15---12-----------------------------------------|----------------------------------------------------|
G|---------14b16---pb16r14-12~~~----------------------|--pb16r14p12----------------------------------------|
D|----------------------------------------------------|-------------14-14----------------------------------|
A|----------------------------------------------------|----------------------------------------------------|
E|----------------------------------------------------|----------------------------------------------------|
                            And I can't recollect                         a better time in my life

e|----------------------------------------------------|--12------------------------------------------------|
B|--12-----------------------------12-15-12~~~--------|--15b17--------------------12-15-12~~~--------------|
G|--14b16---------------------------------------------|----------------------------------------------------|
D|----------------------------------------------------|----------------------------------------------------|
A|----------------------------------------------------|----------------------------------------------------|
E|----------------------------------------------------|----------------------------------------------------|
                           She has all my respect                         she has all my respect

e|----------------------------------------------------|-----------15---------------------------------------|
B|--17~~~--------------------------12-15-12\----------|-----15b17----pb17r15-12~~~-------------------------|
G|----------------------------------------------------|----------------------------------------------------|
D|----------------------------------------------------|----------------------------------------------------|
A|----------------------------------------------------|----------------------------------------------------|
E|----------------------------------------------------|----------------------------------------------------|
                             And I cannot protect        my heart from her command

e|-15-------------------------------------------------|
B|----15----------------------------------------------|
G|-------16-14-14b16-pb16r14-16~~~-14b16r14-12----12~~|
D|---------------------------------------------10-----|
A|----------------------------------------------------|
E|----------------------------------------------------|


e|---------------------------------------------------------------------------------------------------------|
B|---------------------------------------------------------------------------------------------------------|
G|---------------------------------------------------------------------------------------------------------|
D|---------------------------------------------------------------------------------------------------------|
A|--------2---------2---------2---------------------------------------2---------2---------2----------------|
E|--------0--------—0---------0---------3---------3---------3---------0---------0---------0---------7~~~---|
And she's stringin' me       along, the bells are ringing   strong,   so    I   can't     detect       it

e|---------------------------------------------------------------------------------------------------------|
B|---------------------------------------------------------------------------------------------------------|
G|---------------------------------------------------------------------------------------------------------|
D|---------------------------------------------------------------------------------------------------------|
A|--------2---------2---------2---------------------------------------2---------2---------2----------------|
E|--------0--------—0---------0---------3---------3---------3---------0---------0---------0---------7~~~---|
    She's comin'    up      behind   me in  the   mornin',  lovin'    when   I  least     sus-     -pect it


e|---------------------------------------------------------------------------------------------------------|
B|---------------------------------------------------------------------------------------------------------|
G|---------------------------------------------------------------------------------------------------------|
D|---------------------------------------------------------------------------------------------------------|
A|--------2---------2---------2---------------------------------------2---------2---------2----------------|
E|--------0--------—0---------0---------3---------3~~~----------------0---------0---------0---------7~~~---|
          Every     single    thing    about this situation           says   I  can't     be        wrong

e|---------------------------------------------------------------------------------------------------------|
B|---------------------------------------------------------------------------------------------------------|
G|---------------------------------------------------------------------------------------------------------|
D|---------------------------------------------------------------------------------------------------------|
A|--------2---------2---------2---------------------------------------2---------2---------2----------------|
E|--------0--------—0---------0---------3---------3~~~----------------0---------0---------0---------7~~~---|
      And every     time she  gets her  satis-   -faction,  I  want   her   to  control   me    all   night


[Instrumental Outro]

e|---19-------19-------19----19-------------19----19-------------19----19-------------19----19-------------|
B|---22b24----22b24----22b24-22b24-pb24r22--22b24-22b24-pb24r22--22b24-22b24-pb24r22--22b24-22b24-pb24r22--|
G|---------------------------------------------------------------------------------------------------------|
D|---------------------------------------------------------------------------------------------------------|
A|---------------------------------------------------------------------------------------------------------|
E|---------------------------------------------------------------------------------------------------------|
  ...long

e|-------19-------------------------------------------|----------------------------------------------------|
B|-------22b24b24b24b24b24b24b24b24b24b24r22----------|----22b24-22-22----22-------------------------------|
G|---21--------------------------------------24~~~----|----------------24----24-21b22r21\------------------|
D|----------------------------------------------------|----------------------------------------------------|
A|----------------------------------------------------|----------------------------------------------------|
E|----------------------------------------------------|----------------------------------------------------|

e|----------------------------------------------------|----------------------------------------------------|
B|------15------------------------15------------------|------15--------------------------------------------|
G|--/16----16-14-12~~~--------/16----16-14~~~---------|--/16----16-14/16\14-12~~~-----14b16r14-12----------|
D|----------------------------------------------------|-------------------------------------------14~~~----|
A|----------------------------------------------------|----------------------------------------------------|
E|----------------------------------------------------|----------------------------------------------------|

e|----------------------------------------------------|----------------15-17-17b19r17----/22~~~------------|
B|------15------------------------15------------------|------15----/17----------------20-------------------|
G|--/16----16-14/16\14-12~~~--/16----16-14~~~---------|--/16----16-----------------------------------------|
D|----------------------------------------------------|----------------------------------------------------|
A|----------------------------------------------------|----------------------------------------22~~~-------|
E|----------------------------------------------------|----------------------------------------------------|

e|--22/24---27-24-27-24-27-24-30-27--------29-27-29-27--------29-27-29-27--------29-27-29-27---------------|
B|----------------------------------29-27--------------29-27--------------29-27--------------29-27---------|
G|---------------------------------------------------------------------------------------------------------|
D|---------------------------------------------------------------------------------------------------------|
A|---------------------------------------------------------------------------------------------------------|
E|---------------------------------------------------------------------------------------------------------|

e|--29p28p27-----------29p28p27--29p28p27---------------29p28p27---29p28p27--------------------------------|
B|-----------29p28p27----------------------29p28p27--------------------------29p28p27--29p28p27------------|
G|---------------------------------------------------------------------------------------------------------|
D|---------------------------------------------------------------------------------------------------------|
A|---------------------------------------------------------------------------------------------------------|
E|---------------------------------------------------------------------------------------------------------|

e|---------------------------------------------------------------------------------------------------------|
B|---------------------------------------------------------------------------------------------------------|
G|--14p13p12-----------14p13p12--14p13p12--------------14p13p12--14p13p12----12-14-12----------------------|
D|-----------14p13p12----------------------14p13p12-----------------------14------------2~~~---------------|
A|--------------------------------------------------------------------------------------2~~~---------------|
E|--------------------------------------------------------------------------------------0------------------|

e|----------------------|----------------------|
B|----------------------|----------------------|
G|----------------------|----------------------|
D|--2-------------------|--2-------------------| x2
A|--2-------------------|--2-------------------| 
E|--0-----/5--3~~~------|--0-----5/7~~~--------|            
Submit corrections


        Respect Commander lessons Hard to play? Try these video lessons and learn fast Respect Commander lessons
        
↑ Back to top | Tablatures and chords for acoustic guitar and electric guitar, ukulele, drums are parodies/interpretations of the original songs. You may use it for private study, scholarship, research or language learning purposes only