» » »

Jack White - Over And Over And Over Tabs

Artists:  A B C D E F G H I J K L M N O P Q R S T U V W X Y Z # 

Over And Over And Over Tabs

(ver. 1) Click to play this song!
Jack White
 Rating:
4.3/5 (22 votes)

 Over And Over And Over lessons Tabs too difficult? Try these video lessons and learn fast
 
                [Intro]

e|---------------------------------------------------------------------------|
B|---------------------------------------------------------------------------|
G|---------------------------------------------------------------------------|
D|-----2--0h2p0-----0--2-------2--0h2p0-----0--2-----------------------------|
A|---------------2-----------------------2-----------------------------------|
E|--0------------------------------------------------------------------------|

e|---------------------------------------------------------------------------|
B|---------------------------------------------------------------------------|
G|---------------------------------------------------------------------------|
D|-----2--0h2p0-----0--2-----------------------------------------------------|
A|---------------2--------------2--3--5--3----2------------------------------|
E|--0------------------------------------------------------------------------|

e|---------------------------------------------------------------------------|
B|---------------------------------------------------------------------------|
G|---------------------------------------------------------------------------|
D|-----2--0h2p0-----0--2-------2--0h2p0-----0--2-----------------------------|
A|---------------2-----------------------2-----------------------------------|
E|---------------------------------------------------------------------------|

e|---------------------------------------------------------------------------|
B|---------------------------------------------------------------------------|
G|---------------------------------------------------------------------------|
D|-----2--0h2p0-----0--2-----------------------------------------------------|
A|---------------2--------------2--3--5--3----2------------------------------|
E|--0------------------------------------------------------------------------|


[Verse 1]

e|---------------------------------------------------------------------------|
B|---------------------------------------------------------------------------|
G|---------------------------------------------------------------------------|
D|-----2--0h2p0-----0--2-------2--0h2p0-----0--2-----------------------------|
A|---------------2-----------------------2-----------------------------------|
E|---------------------------------------------------------------------------|

e|---------------------------------------------------------------------------|
B|---------------------------------------------------------------------------|
G|---------------------------------------------------------------------------|
D|-----2--0h2p0-----0--2-----------------------------------------------------|
A|---------------2--------------2--3--5--3----2------------------------------|
E|--0------------------------------------------------------------------------|

e|---------------------------------------------------------------------------|
B|---------------------------------------------------------------------------|
G|---------------------------------------------------------------------------|
D|-----2--0h2p0-----0--2-------2--0h2p0-----0--2-----------------------------|
A|---------------2-----------------------2-----------------------------------|
E|---------------------------------------------------------------------------|

e|---------------------------------------------------------------------------|
B|---------------------------------------------------------------------------|
G|---------------------------------------------------------------------------|
D|-----2--0h2p0-----0--2-----------------------------------------------------|
A|---------------2--------------2--3--5--3----2------------------------------|
E|--0------------------------------------------------------------------------|

e|---------------------------------------------------------------------------|
B|---------------------------------------------------------------------------|
G|---------------------------------------------------------------------------|
D|---------------------------------------------------------------------------|
A|---------------------------------------------------------------------------|
E|--55----55----55--55--77--3------------------------------------------------|


[Pre-Chours 1?]

e|---------------------------------------------------------------------------|
B|---------------------------------------------------------------------------|
G|---------------------------------------------------------------------------|
D|-----2--0h2p0-----0--2-------2--0h2p0-----0--2-----------------------------|
A|---------------2-----------------------2-----------------------------------|
E|--0------------------------------------------------------------------------|

e|---------------------------------------------------------------------------|
B|---------------------------------------------------------------------------|
G|---------------------------------------------------------------------------|
D|-----2--0h2p0-----0--2-----------------------------------------------------|
A|---------------2--------------2--3--5--3----2------------------------------|
E|--0----------------------------------------------3--5--7--3----2-----------|


[Chorus?]

e|---------------------------------------------------------------------------|
B|---------------------------------------------------------------------------|
G|---------------------------------------------------------------------------|
D|-----2--0h2p0--------------------2--0h2p0----------------------------------|
A|---------------2--0------------------------2--0----------------------------|
E|--0------------------3--------0------------------3-------------------------|

e|---------------------------------------------------------------------------|
B|---------------------------------------------------------------------------|
G|---------------------------------------------------------------------------|
D|-----2--0h2p0--------------------------------------------------------------|
A|---------------2--0------------2--3--5--3----2-----------------------------|
E|--0------------------3-----------------------------------------------------|

e|---------------------------------------------------------------------------|
B|---------------------------------------------------------------------------|
G|---------------------------------------------------------------------------|
D|-----2--0h2p0--------------------2--0h2p0----------------------------------|
A|---------------2--0------------------------2--0----------------------------|
E|--0------------------3--------0------------------3-------------------------|

e|---------------------------------------------------------------------------|
B|---------------------------------------------------------------------------|
G|---------------------------------------------------------------------------|
D|-----2--0h2p0--------------------------------------------------------------|
A|---------------2--0------------2--3--5--3----2-----------------------------|
E|--0------------------3-----------------------------3--5--7--3----2---------|


[Verse 2]

e|---------------------------------------------------------------------------|
B|---------------------------------------------------------------------------|
G|---------------------------------------------------------------------------|
D|-----2--0h2p0-----0--2-------2--0h2p0-----0--2-----------------------------|
A|---------------2-----------------------2-----------------------------------|
E|---------------------------------------------------------------------------|

e|---------------------------------------------------------------------------|
B|---------------------------------------------------------------------------|
G|---------------------------------------------------------------------------|
D|-----2--0h2p0-----0--2-----------------------------------------------------|
A|---------------2--------------2--3--5--3----2------------------------------|
E|--0------------------------------------------------------------------------|

e|---------------------------------------------------------------------------|
B|---------------------------------------------------------------------------|
G|---------------------------------------------------------------------------|
D|-----2--0h2p0-----0--2-------2--0h2p0-----0--2-----------------------------|
A|---------------2-----------------------2-----------------------------------|
E|---------------------------------------------------------------------------|

e|---------------------------------------------------------------------------|
B|---------------------------------------------------------------------------|
G|---------------------------------------------------------------------------|
D|-----2--0h2p0-----0--2-----------------------------------------------------|
A|---------------2--------------2--3--5--3----2------------------------------|
E|--0------------------------------------------------------------------------|

e|---------------------------------------------------------------------------|
B|---------------------------------------------------------------------------|
G|---------------------------------------------------------------------------|
D|---------------------------------------------------------------------------|
A|---------------------------------------------------------------------------|
E|--55----55----55--55--77--3------------------------------------------------|


[Pre-Chours 2?]

e|---------------------------------------------------------------------------|
B|---------------------------------------------------------------------------|
G|---------------------------------------------------------------------------|
D|-----2--0h2p0-----0--2-------2--0h2p0-----0--2-----------------------------|
A|---------------2-----------------------2-----------------------------------|
E|--0------------------------------------------------------------------------|

e|---------------------------------------------------------------------------|
B|---------------------------------------------------------------------------|
G|---------------------------------------------------------------------------|
D|-----2--0h2p0-----0--2-----------------------------------------------------|
A|---------------2--------------2--3--5--3----2------------------------------|
E|--0----------------------------------------------3--5--7--3----2-----------|


[Chorus 2?]

e|---------------------------------------------------------------------------|
B|---------------------------------------------------------------------------|
G|---------------------------------------------------------------------------|
D|-----2--0h2p0--------------------2--0h2p0----------------------------------|
A|---------------2--0------------------------2--0----------------------------|
E|--0------------------3--------0------------------3-------------------------|

e|---------------------------------------------------------------------------|
B|---------------------------------------------------------------------------|
G|---------------------------------------------------------------------------|
D|-----2--0h2p0--------------------------------------------------------------|
A|---------------2--0------------2--3--5--3----2-----------------------------|
E|--0------------------3-----------------------------------------------------|

e|---------------------------------------------------------------------------|
B|---------------------------------------------------------------------------|
G|---------------------------------------------------------------------------|
D|-----2--0h2p0--------------------2--0h2p0----------------------------------|
A|---------------2--0------------------------2--0----------------------------|
E|--0------------------3--------0------------------3-------------------------|

e|---------------------------------------------------------------------------|
B|---------------------------------------------------------------------------|
G|---------------------------------------------------------------------------|
D|-----2--0h2p0--------------------------------------------------------------|
A|---------------2--0------------2--3--5--3----2-----------------------------|
E|--0------------------3-----------------------------3--5--7--3----2---------|

[Bridge]   x2

e|------------------------------------------------------------------------------|
B|----------------------------------15--------------------------------------15--|
G|--------12h14p12------12--14/16-----------------12h14p12------12--14/16-------|
D|--/14-------------14-----------------------/14------------14------------------|
A|------------------------------------------------------------------------------|
E|------------------------------------------------------------------------------|

e|------------------------------------------------------------------------------|
B|---------------------------------15-------------------------------------------|
G|--------12h14p12------12--14/16-----------------------------------------------|
D|--/14-------------14----------------------------------------------------------|
A|--------------------------------------------2--3--5--3----2-------------------|
E|------------------------------------------------------------------------------|

'And the love is all drowning...'  just play this at the end:

e|---------------------------------------------------------------------------|
B|---------------------------------------------------------------------------|
G|---------------------------------------------------------------------------|
D|---------------------------------------------------------------------------|
A|--------------------------------------------2--3--5--3----2----------------|
E|---------------------------------------------------------------------------|


[Break]

e|---------------------------------------------------------------------------|
B|---------------------------------------------------------------------------|
G|---------------------------------------------------------------------------|
D|-------------------------5-7-----------------------------------------------|
A|----4-5-7-5-4------4-5-7---------------------------------------------------|
E|--5--------------5---------------------------------------------------------|


[Pre-Chours 3?]

e|---------------------------------------------------------------------------|
B|---------------------------------------------------------------------------|
G|---------------------------------------------------------------------------|
D|-----2--0h2p0-----0--2-------2--0h2p0-----0--2-----------------------------|
A|---------------2-----------------------2-----------------------------------|
E|--0------------------------------------------------------------------------|

e|---------------------------------------------------------------------------|
B|---------------------------------------------------------------------------|
G|---------------------------------------------------------------------------|
D|-----2--0h2p0-----0--2-----------------------------------------------------|
A|---------------2--------------2--3--5--3----2------------------------------|
E|--0----------------------------------------------3--5--7--3----2-----------|


[Chorus 3?]

e|---------------------------------------------------------------------------|
B|---------------------------------------------------------------------------|
G|---------------------------------------------------------------------------|
D|-----2--0h2p0--------------------2--0h2p0----------------------------------|
A|---------------2--0------------------------2--0----------------------------|
E|--0------------------3--------0------------------3-------------------------|

e|---------------------------------------------------------------------------|
B|---------------------------------------------------------------------------|
G|---------------------------------------------------------------------------|
D|-----2--0h2p0--------------------------------------------------------------|
A|---------------2--0------------2--3--5--3----2-----------------------------|
E|--0------------------3-----------------------------------------------------|

e|---------------------------------------------------------------------------|
B|---------------------------------------------------------------------------|
G|---------------------------------------------------------------------------|
D|-----2--0h2p0--------------------2--0h2p0----------------------------------|
A|---------------2--0------------------------2--0----------------------------|
E|--0------------------3--------0------------------3-------------------------|

e|---------------------------------------------------------------------------|
B|---------------------------------------------------------------------------|
G|---------------------------------------------------------------------------|
D|-----2--0h2p0--------------------------------------------------------------|
A|---------------2--0--------------------------------------------------------|
E|--0------------------3-----------------------------3--5--7--3----2---------|


[Solo 1]

e|--1212--1515--1717--1919--1515--1717--1414--1212---------------------------|
B|--1212--1515--1717--1919--1515--1717--1414--1212---------------------------|
G|---------------------------------------------------------------------------|
D|---------------------------------------------------------------------------|
A|---------------------------------------------------------------------------|
E|---------------------------------------------------------------------------|

e|--1212--1515--1717--1919---------------------------------------------------|
B|--1212--1515--1717--1919---------------------------------------------------|
G|---------------------------------------------------------------------------|
D|---------------------------------------------------------------------------|
A|----------------------------------2--3--5--3----2--------------------------|
E|---------------------------------------------------------------------------|


[Solo 2]  Octave pedal, distortion, and bits of solo 1 (If someone has a tab for this, that would be great)

e|---------------------------------------------------------------------------|
B|---------------------------------------------------------------------------|
G|---------------------------------------------------------------------------|
D|---------------------------------------------------------------------------|
A|---------------------------------------------------------------------------|
E|---------------------------------------------------------------------------|

e|---------------------------------------------------------------------------|
B|---------------------------------------------------------------------------|
G|---------------------------------------------------------------------------|
D|---------------------------------------------------------------------------|
A|---------------------------------------------------------------------------|
E|------------------------------------------------2--3--5--3----2------------|


[Bongo Solo]

e|---------------------------------------------------------------------------|
B|---------------------------------------------------------------------------|
G|---------------------------------------------------------------------------|
D|---------------------------------------------------------------------------|
A|---------------------------------------------------------------------------|
E|--55----55----55--55--77--3------------------------------------------------|



[Pre-Outro 3?]

e|---------------------------------------------------------------------------|
B|---------------------------------------------------------------------------|
G|---------------------------------------------------------------------------|
D|-----2--0h2p0-----0--2-------2--0h2p0-----0--2-----------------------------|
A|---------------2-----------------------2-----------------------------------|
E|--0------------------------------------------------------------------------|

e|---------------------------------------------------------------------------|
B|---------------------------------------------------------------------------|
G|---------------------------------------------------------------------------|
D|-----2--0h2p0-----0--2-----------------------------------------------------|
A|---------------2--------------2--3--5--3----2------------------------------|
E|--0----------------------------------------------3--5--7--3----2-----------|


[Chorus 3/Outro]

e|---------------------------------------------------------------------------|
B|---------------------------------------------------------------------------|
G|---------------------------------------------------------------------------|
D|-----2--0h2p0--------------------2--0h2p0----------------------------------|
A|---------------2--0------------------------2--0----------------------------|
E|--0------------------3--------0------------------3-------------------------|

e|---------------------------------------------------------------------------|
B|---------------------------------------------------------------------------|
G|---------------------------------------------------------------------------|
D|-----2--0h2p0--------------------------------------------------------------|
A|---------------2--0------------2--3--5--3----2-----------------------------|
E|--0------------------3-----------------------------------------------------|

e|---------------------------------------------------------------------------|
B|---------------------------------------------------------------------------|
G|---------------------------------------------------------------------------|
D|-----2--0h2p0--------------------2--0h2p0----------------------------------|
A|---------------2--0------------------------2--0----------------------------|
E|--0------------------3--------0------------------3-------------------------|

e|---------------------------------------------------------------------------|
B|---------------------------------------------------------------------------|
G|---------------------------------------------------------------------------|
D|-----2--0h2p0--------------------------------------------------------------|
A|---------------2--0------------2--3--5--3----2-----------------------------|
E|--0------------------3-----------------------------3--5--7--3----2---------|

e|---------------------------------------------------------------------------|
B|---------------------------------------------------------------------------|
G|---------------------------------------------------------------------------|
D|---------------------------------------------------------------------------|
A|--2--3--5--3----2----------------------------------------------------------|
E|----------------------3--5--7--3----2--------------------------------------|            
Submit corrections


        Over And Over And Over lessons Hard to play? Try these video lessons and learn fast Over And Over And Over lessons
        
↑ Back to top | Tablatures and chords for acoustic guitar and electric guitar, ukulele, drums are parodies/interpretations of the original songs. You may use it for private study, scholarship, research or language learning purposes only