» » »

Jack White - Never Far Away Tabs

Artists:  A B C D E F G H I J K L M N O P Q R S T U V W X Y Z # 

Never Far Away Tabs

(ver. 1) Click to play this song!
Jack White
 Rating:
4.3/5 (9 votes)

 Never Far Away lessons Tabs too difficult? Try these video lessons and learn fast
 
                [Intro]

e|-4---2------------0---------|-4---2--------------0--------|
B|--------------0-------0-----|----------------0-------0----|
G|-4---2---0h1--------------1-|-4---2---0h1---------------1-|
D|----------------------------|-----------------------------|
A|----------------------------|-----------------------------|
E|----------------------------|-----------------------------|

e|-7---5---4-------4-----|-7---5---4------4-----|
B|-----------------------|----------------------|
G|-7---5---4---4-------4-|-7---5---4---4------4-|
D|-----------------------|----------------------|
A|-----------------------|----------------------|
E|-----------------------|----------------------|

e|-7-------7------6-------6-------5------5-------4------4-----|
B|------------------------------------------------------------|
G|-7---7------7---6---6-------6---5---5------5---4---4------4-|
D|------------------------------------------------------------|
A|------------------------------------------------------------|
E|------------------------------------------------------------|

e|-7---5---4-------4-----|-4---2------------0---------|
B|-----------------------|--------------0-------0-----|
G|-7---5---4---4-------4-|-4---2---0h1--------------1-|
D|-----------------------|----------------------------|
A|-----------------------|----------------------------|
E|-----------------------|----------------------------|

e|----------0----------|----------0----------|----------0----------|
B|------0-------0------|------0-------0------|------0-------0------|
G|--0h1--------------1-|--0h1--------------1-|--0h1--------------1-|
D|---------------------|---------------------|---------------------|
A|---------------------|---------------------|---------------------|
E|---------------------|---------------------|---------------------|


[Verse 1]
**************************************************************************************************************

     Walking home to you
e|-4---2------------0---------|-4---2--------------0--------|
B|--------------0-------0-----|----------------0-------0----|
G|-4---2---0h1--------------1-|-4---2---0h1---------------1-|
D|----------------------------|-----------------------------|
A|----------------------------|-----------------------------|
E|----------------------------|-----------------------------|

    Walking home to you
e|-7---5---4-------4-----|-7---5---4------4-----|
B|-----------------------|----------------------|
G|-7---5---4---4-------4-|-7---5---4---4------4-|
D|-----------------------|----------------------|
A|-----------------------|----------------------|
E|-----------------------|----------------------|

  I'm talking through my wounds that I'm bleeding out for you
e|-7-------7------6-------6-------5------5-------4------4-----|
B|------------------------------------------------------------|
G|-7---7------7---6---6-------6---5---5------5---4---4------4-|
D|------------------------------------------------------------|
A|------------------------------------------------------------|
E|------------------------------------------------------------|

  Talking through my wounds,  Walking home to you
e|-7---5---4-------4--------|-4---2------------0---------|
B|--------------------------|--------------0-------0-----|
G|-7---5---4---4-------4----|-4---2---0h1--------------1-|
D|--------------------------|----------------------------|
A|--------------------------|----------------------------|
E|--------------------------|----------------------------|

e|----------0----------|----------0----------|----------0----------|
B|------0-------0------|------0-------0------|------0-------0------|
G|--0h1--------------1-|--0h1--------------1-|--0h1--------------1-|
D|---------------------|---------------------|---------------------|
A|---------------------|---------------------|---------------------|
E|---------------------|---------------------|---------------------|

   I listen when I can        
e|-4---2------------0---------|-4---2--------------0--------|
B|--------------0-------0-----|----------------0-------0----|
G|-4---2---0h1--------------1-|-4---2---0h1---------------1-|
D|----------------------------|-----------------------------|
A|----------------------------|-----------------------------|
E|----------------------------|-----------------------------|

   I listen when I can
e|-7---5---4-------4-----|-7---5---4------4-----|
B|-----------------------|----------------------|
G|-7---5---4---4-------4-|-7---5---4---4------4-|
D|-----------------------|----------------------|
A|-----------------------|----------------------|
E|-----------------------|----------------------|

   To this picture of you I carry in my hand
e|-7-------7------6-------6-------5------5-------4------4-----|
B|------------------------------------------------------------|
G|-7---7------7---6---6-------6---5---5------5---4---4------4-|
D|------------------------------------------------------------|
A|------------------------------------------------------------|
E|------------------------------------------------------------|

   Lets me hear you say       You're never far away
e|-7---5---4-------4--------|-4---2------------0---------|
B|--------------------------|--------------0-------0-----|
G|-7---5---4---4-------4----|-4---2---0h1--------------1-| 
D|--------------------------|----------------------------|
A|--------------------------|----------------------------|
E|--------------------------|----------------------------|

e|----------0----------|----------0----------|----------0----------|
B|------0-------0------|------0-------0------|------0-------0------|
G|--0h1--------------1-|--0h1--------------1-|--0h1--------------1-|
D|---------------------|---------------------|---------------------|
A|---------------------|---------------------|---------------------|
E|---------------------|---------------------|---------------------|

**************************************************************************************************************

["Bridge"]

e|-0---2---4---5---7---9----|
B|--------------------------|
G|--------------------------|
D|-2---4---6---7---9---11---|
A|--------------------------|
E|-0---2---4---5---7---9----|
 
You don't have to play the notes on the low E here,it sounds better if you're playing alone and 
don't have the "bass" sound of this moment in the song (might be a counterbass but i honestly don't know).

**************************************************************************************************************

[Chorus]

  And the dirt beneath my heels in the road
e|----------------------------|------------------------|
B|-------------0--------------|------------------------|
G|-------2--------------------|-------0-----------0----|
D|----2-----2------2-----2----|----2-----2-----0-----0-|
A|-0------------------3-----3-|-3-----------2----------|
E|----------------------------|------------------------|

  Obeys command to me and serves me as I go
e|----------------------------|------------------------|
B|-------------0--------------|------------------------|
G|-------2--------------------|-------0-----------0----|
D|----2-----2------2-----2----|----2-----2-----0-----0-|
A|-0------------------3-----3-|-3-----------2----------|
E|----------------------------|------------------------|

  And though it helps to know you're never far away
e|----------------------------|------------------------|
B|-------------0--------------|------------------------|
G|-------2--------------------|-------0-----------0----|
D|----2-----2------2-----2----|----2-----2-----0-----0-|
A|-0------------------3-----3-|-3-----------2----------|
E|----------------------------|------------------------|

  I can't help wondering how you might feel about me today
e|----------------------------|-----------------------------|
B|-------------0--------------|-----------------------------|
G|-------2--------------------|-----------------------------|
D|----2-----2------2-----2----|--------------5------------5-|
A|-0------------------3-----3-|----------5-----------5------|
E|----------------------------|--3---3-----------2----------|

                              |-----------------------------|
                              |-----------------------------|
               (Or)           |--------------0------------0-|
                              |-----------0----------0------|
                              |-----------------------------|
                              |--3---3-----------2----------|

e|----------0----------|----------0----------|----------0----------|----------0----------|
B|------0-------0------|------0-------0------|------0-------0------|------0-------0------|
G|-0h1---------------1-|-0h1---------------1-|-0h1---------------1-|-0h1---------------1-|
D|---------------------|---------------------|---------------------|---------------------|
A|---------------------|---------------------|---------------------|---------------------|
E|---------------------|---------------------|---------------------|---------------------|

**************************************************************************************************************


   Ada let me know
e|-4---2------------0---------|-4---2--------------0--------|
B|--------------0-------0-----|----------------0-------0----|
G|-4---2---0h1--------------1-|-4---2---0h1---------------1-|
D|----------------------------|-----------------------------|
A|----------------------------|-----------------------------|
E|----------------------------|-----------------------------|

   Ada let me know
e|-7---5---4-------4-----|-7---5---4------4-----|
B|-----------------------|----------------------|
G|-7---5---4---4-------4-|-7---5---4---4------4-|
D|-----------------------|----------------------|
A|-----------------------|----------------------|
E|-----------------------|----------------------|

   Will you want me back or is it better if I go
e|-7-------7------6-------6-------5------5-------4------4-----|
B|------------------------------------------------------------|
G|-7---7------7---6---6-------6---5---5------5---4---4------4-|
D|------------------------------------------------------------|
A|------------------------------------------------------------|
E|------------------------------------------------------------|

   Will you want me back,     Ada let me know
e|-7---5---4-------4--------|-4---2------------0---------|
B|--------------------------|--------------0-------0-----|
G|-7---5---4---4-------4----|-4---2---0h1--------------1-|
D|--------------------------|----------------------------|
A|--------------------------|----------------------------|
E|--------------------------|----------------------------|

e|----------0----------|----------0----------|----------0----------|
B|------0-------0------|------0-------0------|------0-------0------|
G|--0h1--------------1-|--0h1--------------1-|--0h1--------------1-|
D|---------------------|---------------------|---------------------|
A|---------------------|---------------------|---------------------|
E|---------------------|---------------------|---------------------|

   That Carolina wind        
e|-4---2------------0---------|-4---2--------------0--------|
B|--------------0-------0-----|----------------0-------0----|
G|-4---2---0h1--------------1-|-4---2---0h1---------------1-|
D|----------------------------|-----------------------------|
A|----------------------------|-----------------------------|
E|----------------------------|-----------------------------|

   That Carolina wind
e|-7---5---4-------4-----|-7---5---4------4-----|
B|-----------------------|----------------------|
G|-7---5---4---4-------4-|-7---5---4---4------4-|
D|-----------------------|----------------------|
A|-----------------------|----------------------|
E|-----------------------|----------------------|

   It blows in my eyes and makes me realize
e|-7-------7------6-------6-------5------5-------4------4-----|
B|------------------------------------------------------------|
G|-7---7------7---6---6-------6---5---5------5---4---4------4-|
D|------------------------------------------------------------|
A|------------------------------------------------------------|
E|------------------------------------------------------------|

   The trouble that I'm in   That Carolina Wind
e|-7---5---4-------4--------|-4---2------------0---------|
B|--------------------------|--------------0-------0-----|
G|-7---5---4---4-------4----|-4---2---0h1--------------1-|
D|--------------------------|----------------------------|
A|--------------------------|----------------------------|
E|--------------------------|----------------------------|

e|----------0----------|----------0----------|----------0----------|
B|------0-------0------|------0-------0------|------0-------0------|
G|--0h1--------------1-|--0h1--------------1-|--0h1--------------1-|
D|---------------------|---------------------|---------------------|
A|---------------------|---------------------|---------------------|
E|---------------------|---------------------|---------------------|

**************************************************************************************************************

["Bridge"]

e|-0---2---4---5---7---9----|
B|--------------------------|
G|--------------------------|
D|-2---4---6---7---9---11---|
A|--------------------------|
E|-0---2---4---5---7---9----|
 
(Same observation) 

**************************************************************************************************************

[Chorus]

  And the dirt beneath my heels in the road
e|----------------------------|------------------------|
B|-------------0--------------|------------------------|
G|-------2--------------------|-------0-----------0----|
D|----2-----2------2-----2----|----2-----2-----0-----0-|
A|-0------------------3-----3-|-3-----------2----------|
E|----------------------------|------------------------|

  Obeys command to me and serves me as I go
e|----------------------------|------------------------|
B|-------------2--------------|------------------------|
G|-------2--------------------|-------0-----------0----|
D|----2-----2------2-----2----|----2-----2-----0-----0-|
A|-0------------------3-----3-|-3-----------2----------|
E|----------------------------|------------------------|

  And though it helps to know you're never far away
e|----------------------------|------------------------|
B|-------------2--------------|------------------------|
G|-------2--------------------|-------0-----------0----|
D|----2-----2------2-----2----|----2-----2-----0-----0-|
A|-0------------------3-----3-|-3-----------2----------|
E|----------------------------|------------------------|

  I can't help wondering how you might feel about me today
e|----------------------------|-----------------------------|
B|-------------2--------------|-----------------------------|
G|-------2--------------------|-----------------------------|
D|----2-----2------2-----2----|--------------5------------5-|
A|-0------------------3-----3-|----------5-----------5------|
E|----------------------------|--3---3-----------2----------|

                              |-----------------------------|
                              |-----------------------------|
               (Or)           |--------------0------------0-|
                              |-----------0----------0------|
                              |-----------------------------|
                              |--3---3-----------2----------|

e|----------0----------|----------0----------|----------0----------|----------0----------|
B|------0-------0------|------0-------0------|------0-------0------|------0-------0------|
G|-0h1---------------1-|-0h1---------------1-|-0h1---------------1-|-0h1---------------1-|
D|---------------------|---------------------|---------------------|---------------------|
A|---------------------|---------------------|---------------------|---------------------|
E|---------------------|---------------------|---------------------|---------------------|

**************************************************************************************************************

[This is the intro thing again]

e|-4---2------------0---------|-4---2--------------0--------|
B|--------------0-------0-----|----------------0-------0----|
G|-4---2---0h1--------------1-|-4---2---0h1---------------1-|
D|----------------------------|-----------------------------|
A|----------------------------|-----------------------------|
E|----------------------------|-----------------------------|

e|-7---5---4-------4-----|-7---5---4------4-----|
B|-----------------------|----------------------|
G|-7---5---4---4-------4-|-7---5---4---4------4-|
D|-----------------------|----------------------|
A|-----------------------|----------------------|
E|-----------------------|----------------------|

e|-7-------7------6-------6-------5------5-------4------4-----|
B|------------------------------------------------------------|
G|-7---7------7---6---6-------6---5---5------5---4---4------4-|
D|------------------------------------------------------------|
A|------------------------------------------------------------|
E|------------------------------------------------------------|

e|-7---5---4-------4-----|-4---2------------0---------|
B|-----------------------|--------------0-------0-----|
G|-7---5---4---4-------4-|-4---2---0h1--------------1-|
D|-----------------------|----------------------------|
A|-----------------------|----------------------------|
E|-----------------------|----------------------------|

e|----------0----------|----------0----------|----------0----------|
B|------0-------0------|------0-------0------|------0-------0------|
G|--0h1--------------1-|--0h1--------------1-|--0h1--------------1-|
D|---------------------|---------------------|---------------------|
A|---------------------|---------------------|---------------------|
E|---------------------|---------------------|---------------------|

**************************************************************************************************************

[Verse 3]                   

   You'll see me in a dream        
e|-4---2------------0---------|-4---2--------------0--------|
B|--------------0-------0-----|----------------0-------0----|
G|-4---2---0h1--------------1-|-4---2---0h1---------------1-|
D|----------------------------|-----------------------------|
A|----------------------------|-----------------------------|
E|----------------------------|-----------------------------|

   You'll see me in a dream
e|-7---5---4-------4-----|-7---5---4------4-----|
B|-----------------------|----------------------|
G|-7---5---4---4-------4-|-7---5---4---4------4-|
D|-----------------------|----------------------|
A|-----------------------|----------------------|
E|-----------------------|----------------------|

   You'll see me in a dream across a mountain stream
e|-7-------7------6-------6-------5------5-------4------4-----|
B|------------------------------------------------------------|
G|-7---7------7---6---6-------6---5---5------5---4---4------4-|
D|------------------------------------------------------------|
A|------------------------------------------------------------|
E|------------------------------------------------------------|

   And you will hear me say   You're never far away
e|-7---5---4-------4--------|-4---2------------0---------|----------0----------|
B|--------------------------|--------------0-------0-----|------0-------0------|
G|-7---5---4---4-------4----|-4---2---0h1--------------1-|--0h1--------------1-| 
D|--------------------------|----------------------------|---------------------|
A|--------------------------|----------------------------|---------------------|
E|--------------------------|----------------------------|---------------------|
   
   You're never far away
e|-4---2------------0---------|----------0----------|----------0----------|
B|--------------0-------0-----|------0-------0------|------0-------0------|
G|-4---2---0h1--------------1-|--0h1--------------1-|--0h1--------------1-|
D|----------------------------|---------------------|---------------------|
A|----------------------------|---------------------|---------------------|
E|----------------------------|---------------------|---------------------|

   Never far away
e|-4---2------------0---------|----------0----------|----------0----------|----------0----------|
B|--------------0-------0-----|------0-------0------|------0-------0------|------0-------0------|
G|-4---2---0h1--------------1-|--0h1--------------1-|--0h1--------------1-|--0h1--------------1-|
D|----------------------------|---------------------|---------------------|---------------------|
A|----------------------------|---------------------|---------------------|---------------------|
E|----------------------------|---------------------|---------------------|---------------------|


e|-----------|
B|-----------|
G|-----1-----|
D|-----2-----|
A|-----2-----|
E|-----0-----|            
Submit corrections


        Never Far Away lessons Hard to play? Try these video lessons and learn fast Never Far Away lessons
        
↑ Back to top | Tablatures and chords for acoustic guitar and electric guitar, ukulele, drums are parodies/interpretations of the original songs. You may use it for private study, scholarship, research or language learning purposes only