» » »

Jack White - High Ball Stepper Tabs

Artists:  A B C D E F G H I J K L M N O P Q R S T U V W X Y Z # 

High Ball Stepper Tabs

(ver. 1) Click to play this song!
Jack White
 Rating:
4.4/5 (7 votes)

 High Ball Stepper  lessons Tabs too difficult? Try these video lessons and learn fast
 
                
E|---------------------------------------------------------------------------|
B|--------------10-10--------------------------------------------------------|
G|--------10-10-------10-12b-12b-12-12-10h12---12-10-12-12-12b-12-10------10-|
D|--12-12-----------------------------------------------------------12-12----|
A|---------------------------------------------------------------------------|
D|---------------------------------------------------------------------------|

E|--------------------13-15b-13-------15b-15b-------13----13-15b-15b-13-15-13----13-15b-15b-13/17-23-13-13---|
B|--15-13-15-15-13-15-----------15-15---------15-15----15---------------------15--------------------------15-|
G|-----------------------------------------------------------------------------------------------------------|
D|-----------------------------------------------------------------------------------------------------------|
A|-----------------------------------------------------------------------------------------------------------|
D|-----------------------------------------------------------------------------------------------------------|

E|-------------------------------|
B|--15-13----13-16b-16b-13-15-15-|
G|--------14---------------------|
D|-------------------------------|
A|-------------------------------|
D|-------------------------------|

Outro:

E|--------------------------------|
B|--------------------------------|
G|---------------5---5-7-8b-7-5-7-|
D|---------3-5-7---7--------------|
A|--5b-3-5------------------------|
D|--------------------------------|            
Submit corrections


        High Ball Stepper  lessons Hard to play? Try these video lessons and learn fast High Ball Stepper  lessons
        
↑ Back to top | Tablatures and chords for acoustic guitar and electric guitar, ukulele, drums are parodies/interpretations of the original songs. You may use it for private study, scholarship, research or language learning purposes only