» » »

Jack Savoretti - Take Me Home Tabs

Artists:  A B C D E F G H I J K L M N O P Q R S T U V W X Y Z # 

Take Me Home Tabs

(ver. 1) Click to play this song!
Jack Savoretti
 Rating:
4.3/5 (20 votes)

 Take Me Home lessons Tabs too difficult? Try these video lessons and learn fast
 
                Capo 1

[Intro]

e|------------------------------------|---------------------------------------|
B|--------7-----0------------0-----0--|----7-----0-----------0------5---------|
G|-----0---------------7--------------|--0-------------7----------------------|
D|------------5------5-----5-----5----|--------5-----5-----5-----5------------|
A|---7------7------7------7-----7-----|-7-----7----7-----7-----7--------------|
E|------------------------------------|---------------------------------------|

e|------------------------------------|---------------------------------------|
B|--------7-----0------------0-----0--|----7-----0-----------0------5---------|
G|-----0---------------7--------------|--0-------------7----------------------|
D|------------5------5-----5-----5----|--------5-----5-----5-----5------------|
A|---7------7------7------7-----7-----|-7-----7----7-----7-----7--------------|
E|------------------------------------|---------------------------------------|



[Verse]
 
e|------------------------------------|--------------------------------------|
B|-------------0----------------0-----|----------0----------------0----------|
G|-------0----------------0-----------|-----0---------------0----------------|
D|----5------5-----5----0-----0----0--|---0----0-----0----0-----0-----0------|
A|--7------7-----7----3-----3----3----|-5----5-----5----3-----3-----3--------|
E|------------------------------------|--------------------------------------|

e|------------------------------------|--------------------------------------|
B|-------------0----------------0-----|----------0----------------0----------|
G|-------0----------------0-----------|-----0---------------0----------------|
D|----5------5-----5----0-----0----0--|---0----0-----0----0-----0-----0------|
A|--7------7-----7----3-----3----3----|-5----5-----5----3-----3-----3--------|
E|------------------------------------|--------------------------------------|


e|------------------------------------|--------------------------------------|
B|-------------0----------------0-----|----------0----------------1----------|
G|-------0----------------0-----------|-----0---------------0----------------|
D|----5------5-----5----0-----0----0--|---0----0-----0----2-----2-----2------|
A|--7------7-----7----3-----3----3----|-5----5-----5----3-----3-----3--------|
E|------------------------------------|--------------------------------------|

e|------------------------------------|--------------------------------------|
B|-------------1----------------3-----|----------0----------------0----------|
G|-------2----------------4-----------|-----0---------------0----------------|
D|----2------2-----2----4-----4----4--|---2----2-----2----2-----2-----2------|
A|--0------0-----0----2-----2----2----|-2----2-----2----2-----2-----2--------|
E|------------------------------------|--------------------------------------|


[Chorus]

Strumming

Em G Am C 
Em G Am Bm            
Submit corrections


        Take Me Home lessons Hard to play? Try these video lessons and learn fast Take Me Home lessons
        
↑ Back to top | Tablatures and chords for acoustic guitar and electric guitar, ukulele, drums are parodies/interpretations of the original songs. You may use it for private study, scholarship, research or language learning purposes only