Home » J » Jack Ingram »

Jack Ingram - Love You Tabs

Artists:  A B C D E F G H I J K L M N O P Q R S T U V W X Y Z # 

Love You Tabs

(ver. 1) Click to play this song!
Jack Ingram
e---------------------------------------------------------:
B--4---------4--------------------------------------------:
G--6b8r6b8r6-6(8)r6-4-------------------------------------:
D---------------------6-4---------------------------------:
A-------------------------6-4-----------------------------:
E-----------------------------7-4-------------------------:

e---------7--7b8-----------7--------------------7--7------:
B-----7-9--------------7-9---9~~~~~~~-------7-9------9~~~~:
G-2/8--------------2/8------------------2/8---------------:
D---------------------------------------------------------:
A---------------------------------------------------------:
E---------------------------------------------------------:

Verse

e---------------------------------------------------------:
B---------------------------------------------------------:
G---------------------------------------------------------:
D--6-6-8-6--6-6-8-6/8-8-10-8--8-8-10-8--8-8-10-8--8-6-10-8:
A--4-4-4-4--4-4-4-4/6-6-6--6--6-6-6--6--6-6-6--6--6-6-6--6:
E---------------------------------------------------------:
play 5th riff 8 times right here below 
e---------------------------------------------------------:
B---------------------------------------------------------:
G---------------------------------------------------------:
D--6-6-8-6--6-6-8-6--6-6-8-6--6-6-8-6/-8-8-10-8-----------:
A--4-4-4-4--4-4-4-4--4-4-4-4--4-4-4-4/-6-6-6--6-----------:
E---------------------------------------------------------:

Chorus

e---------------------------------------------------------:
B--4--4----4--4----4--4----2--2----4--4----4--4----4-4-4-4:
G--5--5----3--3----5--5----1--1----5--5----3--3----3-3-3-3:
D--6--6----5--5----6--6----3--3----6--6----5--5----5-5-5-5:
A---------------------------------------------------------:
E---------------------------------------------------------:

Bridge

8 times for each palm muted
e---------------------------------------------------------:
B---------------------------------------------------------:
G-------8---------6---------8-----------------------------:
D--6----8----6----6----6----8-----------------------------:
A--6----6----6----4----6----6-----------------------------:
E--4---------4---------4----------------------------------:


            
Submit corrections

↑ Back to top | Tablatures and chords for acoustic guitar and electric guitar, ukulele, drums are parodies/interpretations of the original songs. You may use it for private study, scholarship, research or language learning purposes only