Home » J » Jackie Wilson »

Jackie Wilson - Your Love Keeps Lifting Me Higher And Higher Tabs

Artists:  A B C D E F G H I J K L M N O P Q R S T U V W X Y Z # 

Your Love Keeps Lifting Me Higher And Higher Tabs

(ver. 1) Click to play this song!
Jackie Wilson
 Rating:
4/5 (4 votes)
                Gtr I (E A D G B E) - 'Robert White - Electric Guitar'
Gtr II (E A D G B E) - 'Horns'
Gtr III (E A D G B E) - 'Strings'


 Intro
  H=98
               D/F#                            G
 4/4
  Gtr I (El. Gtr.)
  Wx5          Q  q  Q  q    Q  E E +E  E q    Q  q  Q  q
|------------|-2--2--2--2--|-2--2-2-(2)-2-2--|-3--3--3--3--|
|------------|-3--3--3--3--|-3--3-3-(3)-3-3--|-3--3--3--3--|
|------------|-2--2--2--2--|-2--2-2-(2)-2-2--|-4--4--4--4--|
|------------|-4--4--4--4--|-4--4-4-(4)-4-4--|-5--5--5--5--|
|------------|-------------|-----------------|-------------|
|------------|-------------|-----------------|-------------|


                    Em/G
  Q  E E +E  E q    Q  q  Q  q    Q  E E +E  E q
|-3--3-3-(3)-3-3--|-3--3--3--3--|-3--3-3-(3)-3-3--|
|-3--3-3-(3)-3-3--|-5--5--5--5--|-5--3-5-(5)-3-5--|
|-4--4-4-(4)-4-4--|-4--4--4--4--|-4--4-4-(4)-4-4--|
|-5--5-5-(5)-5-5--|-5--5--5--5--|-5--5-5-(5)-5-5--|
|-----------------|-------------|-----------------|
|-----------------|-------------|-----------------|


  D/F#
  Q  q  Q  q    Q  E E +E  E q
|-2--2--2--2--|-2--2-2-(2)-2-2----||
|-3--3--3--3--|-3--3-3-(3)-3-3----||
|-2--2--2--2--|-2--2-2-(2)-2-2----||
|-4--4--4--4--|-4--4-4-(4)-4-4----||
|-------------|-------------------||
|-------------|-------------------||


   1st - 3rd Verses
    $
    D/F#                                G
    Q  q   Q   q     Q   E E +E  E q     Q   q  Q  q     Q   E E +E  E q
||--2--2---2---2---|-2---2-2-(2)-2-2--|--3---3--3--3--|--3---3-3-(3)-3-3--|
||o-3--3---3---3---|-3---3-3-(3)-3-3--|--3---3--3--3--|--3---3-3-(3)-3-3--|
||--2--2---2---2---|-2---2-2-(2)-2-2--|--4---4--4--4--|--4---4-4-(4)-4-4--|
||--4--4---4---4---|-4---4-4-(4)-4-4--|--5---5--5--5--|--5---5-5-(5)-5-5--|
||o----------------|------------------|---------------|-------------------|
||-----------------|------------------|---------------|-------------------|
|
|   Gtr II (Horns arr. for Gtr.)
|   Q  E E E E E E   E E E E  H         +W              +H.            Q
||-----------------|------------------|---------------|-------------------|
||o----------------|------------------|---------------|-------------------|
||-----7-7-7-7---7-|---7-9----7-------|-(7)-----------|-(7)---------------|
||-----------------|------------------|---------------|-------------------|
||o----5-5-5-5---5-|---5-7----5-------|-(5)-----------|-(5)---------------|
||-----------------|------------------|---------------|-------------------|


  Em/G                                D/F#
  Q  q   Q   q     Q   E E +E  E q     Q   q  Q  q     Q   E E +E  E q
|-3--3---3---3---|-3---3-3-(3)-3-3--|--2---2--2--2--|--2---2-2-(2)-2-2---|
|-5--5---5---5---|-5---3-5-(5)-3-5--|--3---3--3--3--|--3---3-3-(3)-3-3---|
|-4--4---4---4---|-4---4-4-(4)-4-4--|--2---2--2--2--|--2---2-2-(2)-2-2---|
|-5--5---5---5---|-5---5-5-(5)-5-5--|--4---4--4--4--|--4---4-4-(4)-4-4---|
|----------------|------------------|---------------|--------------------|
|----------------|------------------|---------------|--------------------|
|
| Q  E E E E E E   E E E E  H         +W              +H.            Q
|----------------|------------------|---------------|--------------------|
|----------------|------------------|---------------|--------------------|
|----------------|----------7-------|-(7)-----------|-(7)----------------|
|----7-7-7-7---7-|---7-9------------|---------------|--------------------|
|----------------|----------5-------|-(5)-----------|-(5)----------------|
|----5-5-5-5---5-|---5-7------------|---------------|--------------------|


                                      G
  Q  q   Q   q     Q   E E +E  E q     Q   q  Q  q     Q   E E +E  E q
|-2--2---2---2---|-2---2-2-(2)-2-2--|--3---3--3--3--|--3---3-3-(3)-3-3---|
|-3--3---3---3---|-3---3-3-(3)-3-3--|--3---3--3--3--|--3---3-3-(3)-3-3---|
|-2--2---2---2---|-2---2-2-(2)-2-2--|--4---4--4--4--|--4---4-4-(4)-4-4---|
|-4--4---4---4---|-4---4-4-(4)-4-4--|--5---5--5--5--|--5---5-5-(5)-5-5---|
|----------------|------------------|---------------|--------------------|
|----------------|------------------|---------------|--------------------|
|
| Q  E E E E E E   E E E E  H         +W              +H.            Q
|----------------|------------------|---------------|--------------------|
|----------------|------------------|---------------|--------------------|
|----7-7-7-7---7-|---7-9----7-------|-(7)-----------|-(7)----------------|
|----------------|------------------|---------------|--------------------|
|----5-5-5-5---5-|---5-7----5-------|-(5)-----------|-(5)----------------|
|----------------|------------------|---------------|--------------------|


  Em/G                                       D/F#
  Q  q   Q       q        Q  E E +E  E  q    Q  q  Q  q    Q  E E +E  E q
|-3--3---3-------3------|-3--3-3-(3)-3--3--|-2--2--2--2--|-2--2-2-(2)-2-2---||
|-5--5---5-------5------|-5--3-5-(5)-3--5--|-3--3--3--3--|-3--3-3-(3)-3-3---||
|-4--4---4-------4------|-4--4-4-(4)-4--4--|-2--2--2--2--|-2--2-2-(2)-2-2---||
|-5--5---5-------5------|-5--5-5-(5)-5--5--|-4--4--4--4--|-4--4-4-(4)-4-4---||
|-----------------------|------------------|-------------|------------------||
|-----------------------|------------------|-------------|------------------||
|
|          \0.5
| Q  E E E E    +E  +E    q  Q    E  Q.      W             W
|-----------------------|------------------|-------------|------------------||
|----3-3-3-5----(5)-(5)-|-3----------5-----|-------------|------------------||
|----2-2-2-4----(4)-(4)-|-2----------4-----|-------------|------------------||
|----4-4-4-5----(5)-(5)-|-4----------5-----|-------------|------------------||
|-----------------------|------------------|-------------|------------------||
|-----------------------|------------------|-------------|------------------||


 Chorus
  D/F#                             G
  Q  q  Q  q    Q  E E +E  E  q    Q  q  Q  q    Q  E E +E  E  q
|-2--2--2--2--|-2--2-2-(2)-2--2--|-3--3--3--3--|-3--3-3-(3)-3--3---|
|-3--3--3--3--|-3--3-3-(3)-3--3--|-3--3--3--3--|-3--3-3-(3)-3--3---|
|-2--2--2--2--|-2--2-2-(2)-2--2--|-4--4--4--4--|-4--4-4-(4)-4--4---|
|-4--4--4--4--|-4--4-4-(4)-4--4--|-5--5--5--5--|-5--5-5-(5)-5--5---|
|-------------|------------------|-------------|-------------------|
|-------------|------------------|-------------|-------------------|
|
| q  Q  H       H       E  q.      q  Q  H       H       E  q.
|-------------|------------------|-------------|-------------------|
|-3-----------|------------3-----|-3-----------|------------3------|
|-2-----------|------------2-----|-2-----------|------------2------|
|-4-----------|------------4-----|-4-----------|------------4------|
|-------------|------------------|-------------|-------------------|
|-------------|------------------|-------------|-------------------|


  Em/G                             D/F#
  Q  q  Q  q    Q  E E +E  E  q    Q  q  Q    q    Q  E E +E  E  q
|-3--3--3--3--|-3--3-3-(3)-3--3--|-2--2--2----2--|-2--2-2-(2)-2--2---|
|-5--5--5--5--|-5--3-5-(5)-3--5--|-3--3--3----3--|-3--3-3-(3)-3--3---|
|-4--4--4--4--|-4--4-4-(4)-4--4--|-2--2--2----2--|-2--2-2-(2)-2--2---|
|-5--5--5--5--|-5--5-5-(5)-5--5--|-4--4--4----4--|-4--4-4-(4)-4--4---|
|-------------|------------------|---------------|-------------------|
|-------------|------------------|---------------|-------------------|
|
| q  Q  H       H       E  q.      q  Q  E q.      q  Q    E  q.
|-------------|------------------|---------------|-------------------|
|-5-----------|------------5-----|-3-------5-----|-3----------5------|
|-2-----------|------------2-----|-2-------2-----|-2----------2------|
|-4-----------|------------4-----|-4-------4-----|-4----------4------|
|-------------|------------------|---------------|-------------------|
|-------------|------------------|---------------|-------------------|


                                   G
  Q  q  Q  q    Q  E E +E  E  q    Q  q  Q  q    Q  E E +E  E  q
|-2--2--2--2--|-2--2-2-(2)-2--2--|-3--3--3--3--|-3--3-3-(3)-3--3---|
|-3--3--3--3--|-3--3-3-(3)-3--3--|-3--3--3--3--|-3--3-3-(3)-3--3---|
|-2--2--2--2--|-2--2-2-(2)-2--2--|-4--4--4--4--|-4--4-4-(4)-4--4---|
|-4--4--4--4--|-4--4-4-(4)-4--4--|-5--5--5--5--|-5--5-5-(5)-5--5---|
|-------------|------------------|-------------|-------------------|
|-------------|------------------|-------------|-------------------|
|
| q  Q  H       H       E  q.      q  Q  H       H       E  q.
|-------------|------------------|-------------|-------------------|
|-3-----------|------------3-----|-3-----------|------------3------|
|-2-----------|------------2-----|-2-----------|------------2------|
|-4-----------|------------4-----|-4-----------|------------4------|
|-------------|------------------|-------------|-------------------|
|-------------|------------------|-------------|-------------------|


                                  1.
                         To Coda
  Em/G                             D/F#
  Q  q  Q  q    Q  E E +E  E  q    Q  q  Q    q    Q  E E +E  E q
|-3--3--3--3--|-3--3-3-(3)-3--3--|-2--2--2----2--|-2--2-2-(2)-2-2----||
|-5--5--5--5--|-5--3-5-(5)-3--5--|-3--3--3----3--|-3--3-3-(3)-3-3---o||
|-4--4--4--4--|-4--4-4-(4)-4--4--|-2--2--2----2--|-2--2-2-(2)-2-2----||
|-5--5--5--5--|-5--5-5-(5)-5--5--|-4--4--4----4--|-4--4-4-(4)-4-4----||
|-------------|------------------|---------------|------------------o||
|-------------|------------------|---------------|-------------------||
|
| q  Q  H       H       E  q.      q  Q  E q.      q  Q    H
|-------------|------------------|---------------|-------------------||
|-5-----------|------------5-----|-3-------5-----|-3----------------o||
|-2-----------|------------2-----|-2-------2-----|-2-----------------||
|-4-----------|------------4-----|-4-------4-----|-4-----------------||
|-------------|------------------|---------------|------------------o||
|-------------|------------------|---------------|-------------------||


                                        Interlude
  2.
  D/F#                                   D/F#
  Q  q  Q    q    Q   E  E +E  E  q       Q  q  Q  q
|-2--2--2----2--|-2---2--2-(2)-2--2--||---2--2--2--2--|
|-3--3--3----3--|-3---3--3-(3)-3--3--||o--3--3--3--3--|
|-2--2--2----2--|-2---2--2-(2)-2--2--||---2--2--2--2--|
|-4--4--4----4--|-4---4--4-(4)-4--4--||---4--4--4--4--|
|---------------|--------------------||o--------------|
|---------------|--------------------||---------------|
|
|                    Gtr III (Strings arr. for Gtr.)
| q  Q  E q.      q   E  E  Q     Q       W
|---------------|----14-14-17----14--||--17-----------|
|-3-------5-----|-3------------------||o--------------|
|-2-------2-----|-2------------------||---------------|
|-4-------4-----|-4------------------||---------------|
|---------------|--------------------||o--------------|
|---------------|--------------------||---------------|


                        G
   Q  E E  +E   E  q     Q  q  Q  q    Q   E  E +E   E q
|--2--2-2--(2)--2--2--|--3--3--3--3--|-3---3--3-(3)--3-3----|
|--3--3-3--(3)--3--3--|--3--3--3--3--|-3---3--3-(3)--3-3----|
|--2--2-2--(2)--2--2--|--4--4--4--4--|-4---4--4-(4)--4-4----|
|--4--4-4--(4)--4--4--|--5--5--5--5--|-5---5--5-(5)--5-5----|
|---------------------|--------------|----------------------|
|---------------------|--------------|----------------------|
|
|  H       +E   E  Q     W             Q   Q     Q     Q
|-14------(14)-17-14--|--------------|----------------------|
|---------------------|-15-----------|----------------------|
|---------------------|--------------|-----------------7----|
|---------------------|--------------|-----7-----9----------|
|---------------------|--------------|----------------------|
|---------------------|--------------|----------------------|
|
| Gtr II
|  W                     W             Q   E  E  E   E E  E
|---------------------|--------------|----------------------|
|---------------------|--------------|--------------15------|
|---------------------|--------------|----14-14-16-------16-|
|---------------------|--------------|----------------------|
|---------------------|--------------|----------------------|
|---------------------|--------------|----------------------|


  1.
  Em/G                                  D/F#
   Q  q  Q  q    Q   E  E +E   E q       Q  q  Q  q    Q   E  E +E  E  q
|--3--3--3--3--|-3---3--3-(3)--3-3----|--2--2--2--2--|-2---2--2-(2)-2--2----||
|--5--5--5--5--|-5---3--5-(5)--3-5----|--3--3--3--3--|-3---3--3-(3)-3--3---o||
|--4--4--4--4--|-4---4--4-(4)--4-4----|--2--2--2--2--|-2---2--2-(2)-2--2----||
|--5--5--5--5--|-5---5--5-(5)--5-5----|--4--4--4--4--|-4---4--4-(4)-4--4----||
|--------------|----------------------|--------------|---------------------o||
|--------------|----------------------|--------------|----------------------||
|
|  W             Q   Q     Q     Q       W             W
|--------------|----------------------|--------------|----------------------||
|--------------|----------------------|--------------|---------------------o||
|--7-----------|-----------------7----|--7-----------|----------------------||
|--------------|-----7-----9----------|--------------|----------------------||
|--------------|----------------------|--------------|---------------------o||
|--------------|----------------------|--------------|----------------------||
|
|  W             Q   E  E  E   E E  E    W             Q   E  E  Q     Q
|--------------|----------------------|--------------|----14-14-17----14----||
|-15-----------|--------------15------|-15-----------|---------------------o||
|--------------|----14-14-16-------16-|--------------|----------------------||
|--------------|----------------------|--------------|----------------------||
|--------------|----------------------|--------------|---------------------o||
|--------------|----------------------|--------------|----------------------||


  2.
                                                             D.S. al Coda
  Em/G                                  D/F#
   Q  q  Q  q    Q   E  E +E   E q       Q  q  Q  q      Q   E E +E  E q
|--3--3--3--3--|-3---3--3-(3)--3-3----|--2--2--2--2--|---2---2-2-(2)-2-2---||
|--5--5--5--5--|-5---3--5-(5)--3-5----|--3--3--3--3--|---3---3-3-(3)-3-3---||
|--4--4--4--4--|-4---4--4-(4)--4-4----|--2--2--2--2--|---2---2-2-(2)-2-2---||
|--5--5--5--5--|-5---5--5-(5)--5-5----|--4--4--4--4--|---4---4-4-(4)-4-4---||
|--------------|----------------------|--------------|---------------------||
|--------------|----------------------|--------------|---------------------||
|
|  W             Q   Q     Q     Q       W              +W
|--------------|----------------------|--------------|---------------------||
|--------------|----------------------|--------------|---------------------||
|--7-----------|-----------------7----|--7-----------|--(7)----------------||
|--------------|-----7-----9----------|--------------|---------------------||
|--------------|----------------------|--------------|---------------------||
|--------------|----------------------|--------------|---------------------||
|
|  W             Q   E  E  E   E E  E    W              +W
|--------------|----------------------|--------------|---------------------||
|-15-----------|--------------15------|-15-----------|-(15)----------------||
|--------------|----14-14-16-------16-|--------------|---------------------||
|--------------|----------------------|--------------|---------------------||
|--------------|----------------------|--------------|---------------------||
|--------------|----------------------|--------------|---------------------||


                                                       Outro
  &
  Em/G               D/F#                               D/F#
  Q  E E +E  E  q    Q  q  Q    q    Q  E E +E  E q     Q  q  Q  q
|-3--3-3-(3)-3--3--|-2--2--2----2--|-2--2-2-(2)-2-2--||-2--2--2--2---|
|-5--3-5-(5)-3--5--|-3--3--3----3--|-3--3-3-(3)-3-3--||-3--3--3--3---|
|-4--4-4-(4)-4--4--|-2--2--2----2--|-2--2-2-(2)-2-2--||-2--2--2--2---|
|-5--5-5-(5)-5--5--|-4--4--4----4--|-4--4-4-(4)-4-4--||-4--4--4--4---|
|------------------|---------------|-----------------||--------------|
|------------------|---------------|-----------------||--------------|
|
| Gtr II
| H       E  q.      q  Q  E q.      q  Q    H          q  Q  H
|------------------|---------------|-----------------||--------------|
|------------5-----|-3-------5-----|-3---------------||-3------------|
|------------2-----|-2-------2-----|-2---------------||-2------------|
|------------4-----|-4-------4-----|-4---------------||-4------------|
|------------------|---------------|-----------------||--------------|
|------------------|---------------|-----------------||--------------|


                     G                                Em/G
  Q  E E +E  E  q    Q  q  Q  q    Q  E E +E  E  q    Q  q  Q  q
|-2--2-2-(2)-2--2--|-3--3--3--3--|-3--3-3-(3)-3--3--|-3--3--3--3---|
|-3--3-3-(3)-3--3--|-3--3--3--3--|-3--3-3-(3)-3--3--|-5--5--5--5---|
|-2--2-2-(2)-2--2--|-4--4--4--4--|-4--4-4-(4)-4--4--|-4--4--4--4---|
|-4--4-4-(4)-4--4--|-5--5--5--5--|-5--5-5-(5)-5--5--|-5--5--5--5---|
|------------------|-------------|------------------|--------------|
|------------------|-------------|------------------|--------------|
|
| H       E  q.      q  Q  H       H       E  q.      q  Q  H
|------------------|-------------|------------------|--------------|
|------------3-----|-3-----------|------------3-----|-5------------|
|------------2-----|-2-----------|------------2-----|-2------------|
|------------4-----|-4-----------|------------4-----|-4------------|
|------------------|-------------|------------------|--------------|
|------------------|-------------|------------------|--------------|


                     D/F#
  Q  E E +E  E  q    Q  q  Q    q
|-3--3-3-(3)-3--3--|-2--2--2----2--|
|-5--3-5-(5)-3--5--|-3--3--3----3--|
|-4--4-4-(4)-4--4--|-2--2--2----2--|
|-5--5-5-(5)-5--5--|-4--4--4----4--|
|------------------|---------------|
|------------------|---------------|
|
| H       E  q.      q  Q  E q.
|------------------|---------------|
|------------5-----|-3-------5-----|
|------------2-----|-2-------2-----|
|------------4-----|-4-------4-----|
|------------------|---------------|
|------------------|---------------|


  Q  E E +E  E  q    Q  q  Q  q    Q  E E +E  E  q
|-2--2-2-(2)-2--2--|-2--2--2--2--|-2--2-2-(2)-2--2----|
|-3--3-3-(3)-3--3--|-3--3--3--3--|-3--3-3-(3)-3--3----|
|-2--2-2-(2)-2--2--|-2--2--2--2--|-2--2-2-(2)-2--2----|
|-4--4-4-(4)-4--4--|-4--4--4--4--|-4--4-4-(4)-4--4----|
|------------------|-------------|--------------------|
|------------------|-------------|--------------------|
|
| q  Q    E  q.      q  Q  H       H       E  q.
|------------------|-------------|--------------------|
|-3----------5-----|-3-----------|------------3-------|
|-2----------2-----|-2-----------|------------2-------|
|-4----------4-----|-4-----------|------------4-------|
|------------------|-------------|--------------------|
|------------------|-------------|--------------------|


  G                                Em/G
  Q  q  Q  q    Q  E E +E  E  q    Q  q  Q  q    Q  E E +E  E  q
|-3--3--3--3--|-3--3-3-(3)-3--3--|-3--3--3--3--|-3--3-3-(3)-3--3---*|
|-3--3--3--3--|-3--3-3-(3)-3--3--|-5--5--5--5--|-5--3-5-(5)-3--5---*|
|-4--4--4--4--|-4--4-4-(4)-4--4--|-4--4--4--4--|-4--4-4-(4)-4--4---*|
|-5--5--5--5--|-5--5-5-(5)-5--5--|-5--5--5--5--|-5--5-5-(5)-5--5---*|
|-------------|------------------|-------------|-------------------*|
|-------------|------------------|-------------|-------------------*|
|
| q  Q  H       H       E  q.      q  Q  H       H       E  q.
|-------------|------------------|-------------|-------------------*|
|-3-----------|------------3-----|-5-----------|------------5------*|
|-2-----------|------------2-----|-2-----------|------------2------*|
|-4-----------|------------4-----|-4-----------|------------4------*|
|-------------|------------------|-------------|-------------------*|
|-------------|------------------|-------------|-------------------*|            
Submit corrections

↑ Back to top | Tablatures and chords for acoustic guitar and electric guitar, ukulele, drums are parodies/interpretations of the original songs. You may use it for private study, scholarship, research or language learning purposes only