Home » J » Jack Black »

Jack Black - Forbidden Nectar Tabs

Artists:  A B C D E F G H I J K L M N O P Q R S T U V W X Y Z # 

Forbidden Nectar Tabs

(ver. 1) Click to play this song!
Jack Black
[Solo]
E|-----------------------------------------------------------|
B|-----10/12-12--10-10-8~~---7-8-10-7------7-----------------|
G|--7---------------------------------9-9~---7~~-------------|
D|-----------------------------------------------------------|
A|-----------------------------------------------------------|
E|-----------------------------------------------------------|

E|-----------------------------------------------------10-8-7-7~~~-------|
B|-----------------------------------------------------------------------|
G|--7/9-7--5-5~----4---------------------4---5-4~------------------------|
D|-------------------7-5-------------5h7---------------------------------|
A|-----------------------7-5~----5h7-------------------------------------|
E|-----------------------------------------------------------------------|
            
Submit corrections

↑ Back to top | Tablatures and chords for acoustic guitar and electric guitar, ukulele, drums are parodies/interpretations of the original songs. You may use it for private study, scholarship, research or language learning purposes only