Home » I » Iyaz »

Iyaz - Replay Tabs

Artists:  A B C D E F G H I J K L M N O P Q R S T U V W X Y Z # 

Replay Tabs

(ver. 1) Click to play this song!
Iyaz
(Intro)
|--3----------------3--------------------|
|---5--3-1-3---3-1---5-3-1-3-3-5-3-5-3-1-|
|-------------5--------------------------|
|----------------------------------------|
|----------------------------------------|
|----------------------------------------|

--------------------------------------------|
---1-1-1-1-3-5-5-1---1-1-1-3-5-5-5-5-5-5-5--|
--2-----------------2-----------------------|
--------------------------------------------|
--------------------------------------------|
--------------------------------------------|

have a better note.
            
Submit corrections

↑ Back to top | Tablatures and chords for acoustic guitar and electric guitar, ukulele, drums are parodies/interpretations of the original songs. You may use it for private study, scholarship, research or language learning purposes only