» » »

Israel Houghton - Our God Reigns Tabs

Artists:  A B C D E F G H I J K L M N O P Q R S T U V W X Y Z # 

Our God Reigns Tabs

(ver. 1) Click to play this song!
Israel Houghton
 Rating:
4.3/5 (20 votes)

 Our God Reigns lessons Tabs too difficult? Try these video lessons and learn fast
 
                
[Intro]
Second time through the intro

Part 1
E:---------------11-------------|
B:------12--14------14----------|
G:------------------------------|
D:------------------------------|
A:------------------------------|
E:------------------------------|

Part 2
This is done with palm muting and doing 16th note accenting the G# (13)
E:------------------------------|
B:------------------------------|
G:--11----11-h13------11-h13----|
D:------------------------------|
A:------------------------------|
E:------------------------------|



[Chorus]
E:----------------------------------------------------------------------------------------|
B:----------------------------------------------------------------------------------------|
G:----4---4---6---6---8---8---9---9---9---9---11---9---9---9-h11--9-----------------------|
D:------6---6---8---8---9---9---9---9---9------------9---9------9---9---------------------|
A:----------------------------------------------------------------------------------------|
E:----------------------------------------------------------------------------------------|

E:----------------------------------------------------------------------------------------|
B:----------------------------------------------------------------------------------------|
G:----4---4---6---6---8---8---9---9---8---8---8---8---6---6---6---6-----------------------|
D:------6---6---8---8---9---9---9---9---9---9---9---9---8---8---8---8---------------------|
A:----------------------------------------------------------------------------------------|
E:----------------------------------------------------------------------------------------|

E:-----------------------------------------------------------7----------------------------|
B:-------------------------------------------------------7------------7-------------------|
G:----4---4---6---6---4---3---1----------------------4-----------4-h6-----4---------------|
D:------6---6---8---8-------------4---2---------------------------------------------------|
A:----------------------------------------------------------------------------------------|
E:----------------------------------------------------------------------------------------|

E:----------------------------------------------------------------------------------------|
B:----------------------------------------------------------------------------------------|
G:----4---4---6---6---8---8---9---9---8---8---8---8---6---6---6---6---6---6---6---6-------|
D:------6---6---8---8---9---9---9---9---9---9---9---9-8---8---8---8---8---8---8---8-------|
A:----------------------------------------------------------------------------------------|
E:----------------------------------------------------------------------------------------|



[Bridge]
This is played with 8th note down strokes
Part1
E:----------------------------------------------------------------------------------------|
B:-------12-------------12-------------12-h14------12-------------12-------------12-h14---|
G:--11--------11---11--------11---11----------11--------11---11--------11---11------------|
D:----------------------------------------------------------------------------------------|
A:----------------------------------------------------------------------------------------|
E:----------------------------------------------------------------------------------------|

Part2
E:-------------------------------------------------------------------------------12-p11---|
B:-------12-------------12-------------12-h14------12-------------12----------------------|
G:--11--------11---11--------11---11----------11--------11---11--------11---11------------|
D:----------------------------------------------------------------------------------------|
A:----------------------------------------------------------------------------------------|
E:----------------------------------------------------------------------------------------|

Part3
E:----------------------------------------------------------------------------------------|
B:-------12-------------12-------------12-h14------12-------------12-------------12-h14---|
G:--11--------11---11--------11---11----------11--------11---11--------11---11------------|
D:----------------------------------------------------------------------------------------|
A:----------------------------------------------------------------------------------------|
E:----------------------------------------------------------------------------------------|

Part4
E:----------------------------------------------------------------------------------------|
B:-------12-------------12-------------12-p11------11-------------11---12---11------------|
G:--11--------11---11--------11---11----------11--------11---11------------------13---11--|
D:----------------------------------------------------------------------------------------|
A:----------------------------------------------------------------------------------------|
E:----------------------------------------------------------------------------------------|

Repeat parts 1 and 2
Part 5
E:--------------------------------------------------------------------------11--11-12-11--|
B:-------12-------------12-------------12-h14------12-------------12---14-----------------|
G:--11--------11---11--------11---11----------11--------11---11---------------------------|
D:----------------------------------------------------------------------------------------|
A:----------------------------------------------------------------------------------------|
E:----------------------------------------------------------------------------------------|

Part 6
E:----------------------------------------------------------------------------------------|
B:--14-12-14---16---14---12--------------12-----------------------------------------------|
G:----------------------------13---11-----------------------------------------------------|
D:----------------------------------------------------------------------------------------|
A:----------------------------------------------------------------------------------------|
E:----------------------------------------------------------------------------------------|

[Outro]
Plays with the synth lead line
E:----------------------------------------------------------------------------------------|
B:--4---7s9---7---4------7---9---11---9---7---4-------------------------------------------|
G:------------------------------------------------4---6---8----------4---6---6s8----------|
D:------------------------------------------------------------6-6-------------------------|
A:----------------------------------------------------------------------------------------|
E:----------------------------------------------------------------------------------------|

E:----------------------------------------------------------------------------------------|
B:--4---7s9---7---4------7---9---11---9---7---4-------------------------------------------|
G:------------------------------------------------4---6---8----------6h8p6---4------------|
D:------------------------------------------------------------6-6-------------------------|
A:----------------------------------------------------------------------------------------|
E:----------------------------------------------------------------------------------------|            
Submit corrections


        Our God Reigns lessons Hard to play? Try these video lessons and learn fast Our God Reigns lessons
        
↑ Back to top | Tablatures and chords for acoustic guitar and electric guitar, ukulele, drums are parodies/interpretations of the original songs. You may use it for private study, scholarship, research or language learning purposes only