» » »

I See Stars - What This Means To Me Tabs

Artists:  A B C D E F G H I J K L M N O P Q R S T U V W X Y Z # 

What This Means To Me Tabs

(ver. 1) Click to play this song!
I See Stars
 Rating:
4.4/5 (7 votes)


 What This Means To Me lessons Tabs too difficult? Try these video lessons and learn fast
 
                I See Stars
3-D
Drop D (D A D G B e)

gtr 1 intro (:13-:41)
|------------------------------------------|
|------------------------------------------|
|------------------------------------------|
|------------------------------------------|
|-0-0-0-0h3-3-3-3-3/5-10-10-10-10\8-8-8-8--|
|-0-0-0-0h3-3-3-3-3/5-10-10-10-10\8-8-8-8--|


gtr 2 intro (:13-:41) x3        4th time
|-------8--3-5--|-------8--15p13-12----|
|-6-6-6----5-6--|-6-6-6-------------13-|
|---------------|----------------------|
|---------------|----------------------|
|---------------|----------------------|
|---------------|----------------------|

gtr 1 verse (:41-:54)
|----------------------------|
|----------------------------|
|----------------------------|
|-0~--10~--8~---88888--1010--|
|-0~--10~--8~---88888--1010--|
|-0~--10~--8~---88888--1010--|
                .....

gtr 2 verse (:41-:54)
|-5---5---5---5---3--------|
|---6---6---6---6---5---6--|
|---------------------5----|
|--------------------------|
|--------------------------|
|--------------------------|

gtr 2 cont
|-8---8---8---8---6---6---5---5---|
|---6---6---6---6---6---6---6---6-|
|---------------------------------|
|---------------------------------|
|---------------------------------|
|---------------------------------|

gtr 2 cont

|----------------------------------|
|---5---5---5---5---5---5--6666-88-|
|-5---5---5---5---5---5----5555-55-|
|----------------------------------|
|----------------------------------|
|----------------------------------|
                           .... 

gtr 1 screamo part (:41-1:08) x4
|------------------------|
|------------------------|
|------------------------|
|------------------------|
|-00-00---00000000-00-00-|
|-00-00---00000000-00-00-|
  .. ..   ........ .. ..

gtr 2 screamo part (:41-1:08) x4
|-13----13----13----13----15-------12-------12----|
|----13----13----13----13----13-13----13-13----13-|
|-------------------------------------------------|
|-------------------------------------------------|
|-------------------------------------------------|
|-------------------------------------------------|

gtr 1 & 2 (1:15- 1:35)
|-----------------------------------|
|-------------------6---6---6---6---|
|-7h9-10p9-7h9-10p9---9---9---9---9-|
|-----------------------------------|
|-----------------------------------|
|-----------------------------------|

gtr 1 (1:35-1:50)  x2
|-----------------------------------------------|
|-----------------------------------------------|
|-----------------------------------------------|
|-----------------------------------------------|
|-00-0-00-0-00-0~---------00-0-00-0-00-0~-------|
|-00-0-00-0-00-0~---------00-0-00-0-00-0~-------|
  ..   ..   ..            ..   ..   ..

gtr 2 (1:35-1:50)  x2
|-----------------------------------------------|
|------------------5h6--------------------8p6---|
|----------------------7----------------------7-|
|----3----3----3~------------3----3----3~-------|
|-00-7-00-7-00-7~---------00-7-00-7-00-7~-------|
|-00---00---00------------00---00---00----------|
  ..   ..   ..            ..   ..   ..


verse x1

intro x2

screamo part x1
            
Submit corrections



        What This Means To Me lessons Hard to play? Try these video lessons and learn fast What This Means To Me lessons
        
↑ Back to top | Tablatures and chords for acoustic guitar and electric guitar, ukulele, drums are parodies/interpretations of the original songs. You may use it for private study, scholarship, research or language learning purposes only