» » »

Irwin Goodman - St Pauli Ja Reeperbahn Tabs

Artists:  A B C D E F G H I J K L M N O P Q R S T U V W X Y Z # 

St Pauli Ja Reeperbahn Tabs

(ver. 1) Click to play this song!
Irwin Goodman
 Rating:
4/5 (4 votes)

 St Pauli Ja Reeperbahn lessons Tabs too difficult? Try these video lessons and learn fast
 
                ------------------------------ St. Pauli & Reeperbahn - Irwin Goodman ----------------------------

Tuning: Standard


This is my first tab so please rate and comment!
I think it's pretty much right..


  KERTOSAE:

e|-------------------------------------------------------------------|
B|---1-----0------------------0--------------------------------------|
G|-0---2-2---2--------4-4-4-2---2--------2-2-2-0-2-0----2-0----------|
D|-------------3--3-3-------------3--2-2--------------0-----3---0-2--|
A|------------------------------------------------------------3------|
E|-------------------------------------------------------------------|

e|-------------------------------------------------------------------|
B|---1-----0------------------0-------------------------------0-1----|
G|-0---2-2---2--------4-4-4-2---2-------2-2-2-0-2-0---2-0-0-2--------|
D|-------------3--3-3-------------3--2-2------------0----------------|
A|-------------------------------------------------------------------|
E|-------------------------------------------------------------------|


  SAKEISTO:

e|-------------------------------------------------------------------|
B|-------------------------------------------------------------------|
G|-0-0-0-------------------------------------0-0---------------------|
D|---------0-2-2-0------0-0-2-3-2--0-2-2-2-3-----3------0-0-2-3-2----|
A|-------3----------3-3-----------------------------3-3--------------|
E|-------------------------------------------------------------------|

e|-------------------------------------------------------------------|
B|------------------------------------------------------1-1-1-0-1----|
G|-0-0-0-------------------------------------0-0----2-2--------------|
D|---------0-2-2-0------0-0-2-3-2--0-2-2-2-3-----3-------------------|
A|-------3----------3-3----------------------------------------------|
E|-------------------------------------------------------------------|



St. Pauli ja Reeperbahn
Sinne veri vetää uudestaan
Naisiin öihin mannermaisemiin vie
Tie suureen maailmaan
St. Pauli ja Reeperbahn
Sinne veri vetää uudestaan
Sumuun kolibriin ja humuun vie
Tie suureen maailmaan

Kauan etsin, kauan kuljin
Viimein saavuin Hampuriin
Muistoihini sinut suljin
Kaipaan Elben kaupunkiin
Kauniit naiset, laulu, viini
Kaikkialla kaikui vain
Meidät kietoi serpentiiniin
Yhteen silloin sinut sain

St. Pauli ja Reeperbahn
Sinne veri vetää uudestaan
Naisiin öihin mannermaisemiin vie
Tie suureen maailmaan
St. Pauli ja Reeperbahn
Sinne veri vetää uudestaan
Sumuun kolibriin ja humuun vie
Tie suureen maailmaan

Kaiken päivää sekä yötä
Kanssas kaksin juhlittiin
Hullut tekivät kai työtä
Me vain mentiin kolibriin
Tuttu lause: "Samanlaiset"
Päivä saatiin alkamaan
Karnevaalit, kauniit naiset
Teitä kaipaan aina vaan

St. Pauli ja Reeperbahn
Sinne veri vetää uudestaan
Naisiin öihin mannermaisemiin vie
Tie suureen maailmaan
St. Pauli ja Reeperbahn
Sinne veri vetää uudestaan
Sumuun kolibriin ja humuun vie
Tie suureen maailmaan

Laa laa laa, laa la laa... etc.
            
Submit corrections


        St Pauli Ja Reeperbahn lessons Hard to play? Try these video lessons and learn fast St Pauli Ja Reeperbahn lessons
        
↑ Back to top | Tablatures and chords for acoustic guitar and electric guitar, ukulele, drums are parodies/interpretations of the original songs. You may use it for private study, scholarship, research or language learning purposes only