» » »

Irish Rovers - Drunken Sailor Tabs

Artists:  A B C D E F G H I J K L M N O P Q R S T U V W X Y Z # 

Drunken Sailor Tabs

(ver. 1) Click to play this song!
Irish Rovers
 Rating:
4/5 (4 votes)

 Drunken Sailor lessons Tabs too difficult? Try these video lessons and learn fast
 
                Irish Rovers - Drunken Sailor

Standard Tuning | B minor

----------------------------------
I've set this at an Irish Rovers
tab because it is in the same key. 
----------------------------------


Chords

e|----------------|
B|----------------|
G|----------------|
D|--9--7--9--7-9--|
A|--9--7--9--7-9--|
E|--7--5--7--5-7--|


Melody

e|-----------------------------------------------------------------------|
B|-----------------------------------------------------------------------|
G|------------------------------------------------6-7-9--7---------------|
D|--9-999-999-------9--7-777-777-----7--9-999-999----------9-7-----------|
A|------------7-10---------------5-8---------------------------9-7-\5-7--|
E|-----------------------------------------------------------------------|

No lyrics because I don't know all of them so look them up yourself


If you have any queries or improvements, my email
---------------------------
---------------------------
            
Submit corrections


        Drunken Sailor lessons Hard to play? Try these video lessons and learn fast Drunken Sailor lessons
        
↑ Back to top | Tablatures and chords for acoustic guitar and electric guitar, ukulele, drums are parodies/interpretations of the original songs. You may use it for private study, scholarship, research or language learning purposes only