» » »

In This Moment - Adrenalize Tabs

Artists:  A B C D E F G H I J K L M N O P Q R S T U V W X Y Z # 

Adrenalize Tabs

(ver. 1) Click to play this song!
In This Moment
 Rating:
2.1/5 (30 votes)

 Adrenalize lessons Tabs too difficult? Try these video lessons and learn fast
 
                Tuning: Drop C#

(Intro)

|-----------------------------------|
|-----------------------------------|
|-----------------------------------|
|2-x-2-x-2-x-2-x-2-x-2-x-2-x-2-x-2-x|
|2-x-2-x-2-x-2-x-2-x-2-x-2-x-2-x-2-x|
|0-x-0-x-0-x-0-x-0-x-0-x-0-x-0-x-0-x|

|-----|
|-----|
|-----|
|2-7-5|
|2-7-5|
|0-5-3|

|-----------------------------------|
|-----------------------------------|
|-----------------------------------|
|2-x-2-x-2-x-2-x-2-x-2-x-2-x-2-x-2-x|
|2-x-2-x-2-x-2-x-2-x-2-x-2-x-2-x-2-x|
|0-x-0-x-0-x-0-x-0-x-0-x-0-x-0-x-0-x|

|----|
|----|
|----|
|5--7|
|5--7|
|3--5|

|-----------------------------------|
|-----------------------------------|
|-----------------------------------|
|2-x-2-x-2-x-2-x-2-x-2-x-2-x-2-x-2-x|
|2-x-2-x-2-x-2-x-2-x-2-x-2-x-2-x-2-x|
|0-x-0-x-0-x-0-x-0-x-0-x-0-x-0-x-0-x|

|-----|
|-----|
|-----|
|2-7-5|
|2-7-5|
|0-5-3|

|-----------------------|
|-----------------------|
|-----------------------|
|2-x-2-x-2-x-2-x-2-x-2-x|
|2-x-2-x-2-x-2-x-2-x-2-x|
|0-x-0-x-0-x-0-x-0-x-0-x|

Adrenalize me

|---------------------------------------------|
|---------------------------------------------|
|---------------------------------------------|
|---------------------------------------------|
|---------------------------------------------|
|0---0-0--0---0-0--0---0-0--0---0-0--6---5---2|

|----------------------------------------------|
|----------------------------------------------|
|----------------------------------------------|
|----------------------------------------------|
|-------------------------------------5-7-5----|
|0---0-0--0---0-0--0---0-0--0---0-0---------5-3|

|---------------------------------------------|
|---------------------------------------------|
|---------------------------------------------|
|---------------------------------------------|
|---------------------------------------------|
|0---0-0--0---0-0--0---0-0--0---0-0--6---5---2|

|---------------------------|
|---------------------------|
|---------------------------|
|---------------------------|
|---------------------------|
|0---0-0--0---0-0--0---0-0-0|

(Verse)

Come a little bit

|---------------------------------------------|
|---------------------------------------------|
|---------------------------------------------|
|---------------------------------------------|
|---------------------------------------------|
|0---0-0--0---0-0--0---0-0--0---0-0--6---5---2|

|---------------------------|
|---------------------------|
|---------------------------|
|---------------------------|
|---------------------------|
|0---0-0--0---0-0--0---0-0-0|

|---------------------------------------------|
|---------------------------------------------|
|---------------------------------------------|
|---------------------------------------------|
|---------------------------------------------|
|0---0-0--0---0-0--0---0-0--0---0-0--6---5---2|

|---------------------------|
|---------------------------|
|---------------------------|
|---------------------------|
|---------------------------|
|0---0-0--0---0-0--0---0-0-0|

|---------------------------------------------|
|---------------------------------------------|
|---------------------------------------------|
|---------------------------------------------|
|---------------------------------------------|
|0---0-0--0---0-0--0---0-0--0---0-0--6---5---2|

|---------------------------|
|---------------------------|
|---------------------------|
|---------------------------|
|---------------------------|
|0---0-0--0---0-0--0---0-0-0|

|---------------------------------------------|
|---------------------------------------------|
|---------------------------------------------|
|---------------------------------------------|
|---------------------------------------------|
|0---0-0--0---0-0--0---0-0--0---0-0--6---5---2|

|------------------------------------------------|
|------------------------------------------------|
|------------------------------------------5--7--|
|------------------------------------2-5-7-5--7--|
|------------------------------------2-5-7-3--5--|
|0---0-0--0---0-0--0---0-0--0---0-0--0-3-5-------|

(Chorus)

|-------------------------------------------------|
|-------------------------------------------------|
|-----------7--7-7-----5--5-5---------------------|
|2--2-2-----7--7-7-----5--5-5-----2--2-2----------|
|2--2-2-----5--5-5-----3--3-3-----2--2-2----------|
|0--0-0-5/---------5/---------5/--0--0-0-5-3-5-3-0|

|-------------------------------------------|
|-------------------------------------------|
|-----------7--7-7-----5--5-5--------5------|
|2--2-2-----7--7-7-----5--5-5-----2--5--2--7|
|2--2-2-----5--5-5-----3--3-3-----2--3--2--7|
|0--0-0-5/---------5/---------5/--0-----0--5|

|-------------------------------------------------|
|-------------------------------------------------|
|-----------7--7-7-----5--5-5---------------------|
|2--2-2-----7--7-7-----5--5-5-----2--2-2----------|
|2--2-2-----5--5-5-----3--3-3-----2--2-2----------|
|0--0-0-5/---------5/---------5/--0--0-0-5-3-5-3-0|

|-------------------------------------------|
|-------------------------------------------|
|-----------7--7-7-----5--5-5--------5------|
|2--2-2-----7--7-7-----5--5-5-----2--5--5---|
|2--2-2-----5--5-5-----3--3-3-----2--3--5---|
|0--0-0-5/---------5/---------5/--0-----3---|

(Verse)

|---------------------------------------------|
|---------------------------------------------|
|---------------------------------------------|
|---------------------------------------------|
|---------------------------------------------|
|0---0-0--0---0-0--0---0-0--0---0-0--6---5---2|

|---------------------------|
|---------------------------|
|---------------------------|
|---------------------------|
|---------------------------|
|0---0-0--0---0-0--0---0-0-0|

|---------------------------------------------|
|---------------------------------------------|
|---------------------------------------------|
|---------------------------------------------|
|---------------------------------------------|
|0---0-0--0---0-0--0---0-0--0---0-0--6---5---2|

|---------------------------|
|---------------------------|
|---------------------------|
|---------------------------|
|---------------------------|
|0---0-0--0---0-0--0---0-0-0|

|---------------------------------------------|
|---------------------------------------------|
|---------------------------------------------|
|---------------------------------------------|
|---------------------------------------------|
|0---0-0--0---0-0--0---0-0--0---0-0--6---5---2|

|---------------------------|
|---------------------------|
|---------------------------|
|---------------------------|
|---------------------------|
|0---0-0--0---0-0--0---0-0-0|

|---------------------------------------------|
|---------------------------------------------|
|---------------------------------------------|
|---------------------------------------------|
|---------------------------------------------|
|0---0-0--0---0-0--0---0-0--0---0-0--6---5---2|

|------------------------------------------------|
|------------------------------------------------|
|------------------------------------------5--7--|
|------------------------------------2-5-7-5--7--|
|------------------------------------2-5-7-3--5--|
|0---0-0--0---0-0--0---0-0--0---0-0--0-3-5-------|

(Chorus)

|-------------------------------------------------|
|-------------------------------------------------|
|-----------7--7-7-----5--5-5---------------------|
|2--2-2-----7--7-7-----5--5-5-----2--2-2----------|
|2--2-2-----5--5-5-----3--3-3-----2--2-2----------|
|0--0-0-5/---------5/---------5/--0--0-0-5-3-5-3-0|

|-------------------------------------------|
|-------------------------------------------|
|-----------7--7-7-----5--5-5--------5------|
|2--2-2-----7--7-7-----5--5-5-----2--5--2--7|
|2--2-2-----5--5-5-----3--3-3-----2--3--2--7|
|0--0-0-5/---------5/---------5/--0-----0--5|

|-------------------------------------------------|
|-------------------------------------------------|
|-----------7--7-7-----5--5-5---------------------|
|2--2-2-----7--7-7-----5--5-5-----2--2-2----------|
|2--2-2-----5--5-5-----3--3-3-----2--2-2----------|
|0--0-0-5/---------5/---------5/--0--0-0-5-3-5-3-0|

|-------------------------------------------|
|-------------------------------------------|
|-----------7--7-7-----5--5-5--------5------|
|2--2-2-----7--7-7-----5--5-5-----2--5--5---|
|2--2-2-----5--5-5-----3--3-3-----2--3--5---|
|0--0-0-5/---------5/---------5/--0-----3---|

(Break part)

|---------------------------------------------|
|---------------------------------------------|
|---------------------------------------------|
|---------------------------------------------|
|---------------------------------------------|
|0---0-0--0---0-0--0---0-0--0---0-0--6---5---2|

|----------------------------------------------|
|----------------------------------------------|
|----------------------------------------------|
|----------------------------------------------|
|-------------------------------------5-7-5----|
|0---0-0--0---0-0--0---0-0--0---0-0---------5-3|

|---------------------------------------------|
|---------------------------------------------|
|---------------------------------------------|
|---------------------------------------------|
|---------------------------------------------|
|0---0-0--0---0-0--0---0-0--0---0-0--6---5---2|

|---------------------------|
|---------------------------|
|---------------------------|
|---------------------------|
|---------------------------|
|0---0-0--0---0-0--0---0-0-0|

|---------------------------------------------|
|---------------------------------------------|
|---------------------------------------------|
|---------------------------------------------|
|---------------------------------------------|
|0---0-0--0---0-0--0---0-0--0---0-0--6---5---2|

|----------------------------------------------|
|----------------------------------------------|
|----------------------------------------------|
|----------------------------------------------|
|-------------------------------------5-7-5----|
|0---0-0--0---0-0--0---0-0--0---0-0---------5-3|

|---------------------------------------------|
|---------------------------------------------|
|---------------------------------------------|
|---------------------------------------------|
|---------------------------------------------|
|0---0-0--0---0-0--0---0-0--0---0-0--6---5---2|

|---------------------------|
|---------------------------|
|---------------------------|
|---------------------------|
|---------------------------|
|0---0-0--0---0-0--0---0-0-0|

|-----------------------------------|
|-----------------------------------|
|-----------------------------------|
|2-x-2-x-2-x-2-x-2-x-2-x-2-x-2-x-2-x|
|2-x-2-x-2-x-2-x-2-x-2-x-2-x-2-x-2-x|
|0-x-0-x-0-x-0-x-0-x-0-x-0-x-0-x-0-x|

|-----|
|-----|
|-----|
|2-7-5|
|2-7-5|
|0-5-3|

|-----------------------------------|
|-----------------------------------|
|-----------------------------------|
|2-x-2-x-2-x-2-x-2-x-2-x-2-x-2-x-2-x|
|2-x-2-x-2-x-2-x-2-x-2-x-2-x-2-x-2-x|
|0-x-0-x-0-x-0-x-0-x-0-x-0-x-0-x-0-x|

|----|
|----|
|----|
|5--7|
|5--7|
|3--5|

|-----------------------------------|
|-----------------------------------|
|-----------------------------------|
|2-x-2-x-2-x-2-x-2-x-2-x-2-x-2-x-2-x|
|2-x-2-x-2-x-2-x-2-x-2-x-2-x-2-x-2-x|
|0-x-0-x-0-x-0-x-0-x-0-x-0-x-0-x-0-x|

|-----|
|-----|
|-----|
|2-7-5|
|2-7-5|
|0-5-3|

|-----------------------|
|-----------------------|
|-----------------------|
|2-x-2-x-2-x-2-x-2-x-2-x|
|2-x-2-x-2-x-2-x-2-x-2-x|
|0-x-0-x-0-x-0-x-0-x-0-x|

(Chorus)  

|--------------------------------------------------------|
|--------------------------------------------------------|
|-------------------7--7-7-7--7--7-7-7-5--5-5-5--5--5-5-5|
|2--2-2-2--2--2-2-2-7--7-7-7--7--7-7-7-5--5-5-5--5--5-5-5|
|2--2-2-2--2--2-2-2-5--5-5-5--5--5-5-5-3--3-3-3--3--3-3-3|
|0--0-0-0--0--0-0-0--------------------------------------|
    x x x     x x x    x x x     x x x    x x x     x x x

|------------------|
|------------------|
|------------------|
|------------------|
|2--2-2-2----------|
|0--0-0-0-5-3-5-3-0|
    x x x

|--------------------------------------------------------|
|--------------------------------------------------------|
|-------------------7--7-7-7--7--7-7-7-5--5-5-5--5--5-5-5|
|2--2-2-2--2--2-2-2-7--7-7-7--7--7-7-7-5--5-5-5--5--5-5-5|
|2--2-2-2--2--2-2-2-5--5-5-5--5--5-5-5-3--3-3-3--3--3-3-3|
|0--0-0-0--0--0-0-0--------------------------------------|
    x x x     x x x    x x x     x x x    x x x     x x x

|------------|
|------------|
|---5--------|
|2--5--2--7--|
|2--3--2--7--|
|0-----0--5--|

|--------------------------------------------------------|
|--------------------------------------------------------|
|-------------------7--7-7-7--7--7-7-7-5--5-5-5--5--5-5-5|
|2--2-2-2--2--2-2-2-7--7-7-7--7--7-7-7-5--5-5-5--5--5-5-5|
|2--2-2-2--2--2-2-2-5--5-5-5--5--5-5-5-3--3-3-3--3--3-3-3|
|0--0-0-0--0--0-0-0--------------------------------------|
    x x x     x x x    x x x     x x x    x x x     x x x

|------------------|
|------------------|
|------------------|
|------------------|
|2--2-2-2----------|
|0--0-0-0-5-3-5-3-0|
    x x x

|--------------------------------------------------------|
|--------------------------------------------------------|
|-------------------7--7-7-7--7--7-7-7-5--5-5-5--5--5-5-5|
|2--2-2-2--2--2-2-2-7--7-7-7--7--7-7-7-5--5-5-5--5--5-5-5|
|2--2-2-2--2--2-2-2-5--5-5-5--5--5-5-5-3--3-3-3--3--3-3-3|
|0--0-0-0--0--0-0-0--------------------------------------|
    x x x     x x x    x x x     x x x    x x x     x x x

|---------|
|---------|
|---5-----|
|2--5--5--|
|2--3--5--|
|0-----3--|            
Submit corrections


        Adrenalize lessons Hard to play? Try these video lessons and learn fast Adrenalize lessons
        
↑ Back to top | Tablatures and chords for acoustic guitar and electric guitar, ukulele, drums are parodies/interpretations of the original songs. You may use it for private study, scholarship, research or language learning purposes only