Home » I » Innocence Mission »

Innocence Mission - When Mac Was Swimming Chords

Artists:  A B C D E F G H I J K L M N O P Q R S T U V W X Y Z # 

When Mac Was Swimming Chords

(ver. 1) Click to play this song!
Innocence Mission

The Innocence Mission - When Mac was Swimming

no capo for chords (guitar 1)
capo 3 for tablature (guitar 2)

Fmaj7  Bbmaj7
  0      x
  1      6
  2      7
  3      7
  3      x
  x      6

intro, instrumentals, and chorus:

 Fmaj7            Bbmaj7           Fmaj7
|2-------2-2-----|2-------2-2--(0)|2-------2-2-----|
|2-------2-2-----|0-------0-0--(0)|2-------2-2-----|
|2-------2-2-----|0-------0-0--(0)|2-------2-2-----|
|0-----0-------0-|------0-----0---|0-----0-------0-|
|----------------|----------------|----------------|
|----------------|----------------|----------------|

VERSE:

Dm            Gm
When Mac was swimming
C              F
I was running late
Bbmaj7     Gm
Walking around New Orleans
C              F
Looking for a birthday cake
Dm              Gm
It was a great surprise to him
C               Fmaj7
So many people came

CHORUS:

Bbmaj7         Fmaj7
Nobody knows, darling
Bbmaj7       Fmaj7        Bbmaj7
Nobody knows how they are loved
                Fmaj7
Don't worry, my darling
    Bbmaj7
The sun's coming up

SHORT INSTRUMENTAL PART:

Fmaj7             Bbmaj7           Fmaj7
|9-----5-----7---|----------------|9-----5-----7---|
|7-----7-----8---|----------------|7-----7-----8---|
|7-----------0---|----------------|7-----------0---|
|----------------|----------------|------------0---|
|----------------|----------------|----------------|
|----------------|----------------|----------------|

Dm            Gm
Let's get up early now
C             F
Dive clear into the day
Bbmaj7               Gm             C
Let's get out of the car with open arms
            F
Not wait to be embraced
Dm               Gm
The flowers that grew, the things that
C                 Fmaj7
happened since the day you came.

CHORUS

INSTRUMENTAL (w/ piano)

CHORUS x2 (piano tinkering in background)

la da da da da da da ah ah

INSTRUMENTAL till end
            
Submit corrections

↑ Back to top | Tablatures and chords for acoustic guitar and electric guitar, ukulele, drums are parodies/interpretations of the original songs. You may use it for private study, scholarship, research or language learning purposes only