» » »

In Extremo - Sagrada Trobar Tabs

Artists:  A B C D E F G H I J K L M N O P Q R S T U V W X Y Z # 

Sagrada Trobar Tabs

(ver. 1) Click to play this song!
In Extremo
 Rating:
4/5 (4 votes)


 Sagrada Trobar lessons Tabs too difficult? Try these video lessons and learn fast
 
                Tuning: Drop D DADgbe 



[INTRO] (also played over Chorus)

		     X3
e|--------------------|--------------------||
b|--------------------|--------------------||
g|----7---0------0----|------0---0----0----||
D|------7------3---3--|-----------------0--||
A|--5--------1--------|--1-1---3---5-5-----||
D|--------------------|--------------------||



[CHORUS] (Guitar)

e|----------|----------|----------|-----------||
b|----------|----------|----------|-----------||
g|--7----3--|--7----3--|--7----3--|--3--5--7--||
D|--7----3--|--7----3--|--7----3--|--3--5--7--||
A|--5----1--|--5----1--|--5----1--|--1--3--5--||
D|----------|----------|----------|-----------||


[CHORUS] (Bagpipes)

e|-----------------------------------------------------------------------------------------
b|------------------------------------------------1-3-1------------------------------------
g|------------------------------2h3-5-3-2h3p2-0h2-------3--2h3p2-0-2--0-----0h2p0----------
D|--7--5-7--5-7--8-7--5--3--3h5-----------------------------------------3-3-------3-0---0--
A|------------------------------------------------------------------------------------3----
D|-----------------------------------------------------------------------------------------

  ------------------------------------------------------------------------------------------------------------||
  -------------------------1-3-1------------------------------------------------------------------------------||
  ---------------2h3-2p0-2--------3--2h3p2-0-2--0-----0h2p0-----------0-0------------0------0-0--------0------||
  --3p0-0----3--5---------------------------------3-3-------3--0---0-------2-3p2-3-------2------2-3p2-3--0----||
  --------3------------------------------------------------------3--------------------------------------------||
  ------------------------------------------------------------------------------------------------------------||



[VERSE]
		

I don't think it's really necesarry for the guitar to play here somenthing.
But if you want, play something like this, I don't know if it's correct, but it sounds good.

		      	       X4			 
e|-----------------------------||
b|-----------------------------||
g|------2------2------2-----2--||
D|----0------0------0-----0----||
A|--2------2------2-----2------||
D|-----------------------------||


[INTERLUDE]
	         X2
e|---------------||
b|---------------||
g|--4-444-3-333--||
D|--4-444-3-333--||
A|--2-222-1-111--||
D|---------------||



[BRIDGE]

e|--------------------------|----------------------------|--------------------------|------------------------||
b|--------------------------|----------------------------|--------------------------|------------------------||
g|--------------------------|----------------------------|--------------------------|------------------------||
D|--5h7-5h7--%--5h7-5h7--8--|--5h7-5h7--%--5h7-5h7--8~~--|--5h7-5h7--%--5h7-5h7--8--|--5h7-5h7-%--5h7-777-8--||
A|--5h7-5h7--%--5h7-5h7--8--|--5h7-5h7--%--5h7-5h7--8~~--|--5h7-5h7--%--5h7-5h7--8--|--5h7-5h7-%--5h7-777-8--||
D|--5h7-5h7--%--5h7-5h7--8--|--5h7-5h7--%--5h7-5h7--8~~--|--5h7-5h7--%--5h7-5h7--8--|--5h7-5h7-%--5h7-777-8--||
P.M.                                                                                                  ...



[INTERLUDE 2]

		     X3
e|-------------------|-------------------------|
b|-------------------|-------------------------|
g|-------------------|-------------------------|
D|--7h9-9--7h9-9-99--|--7h9-9--7h9--10--10-10--|
A|--7h9-9--7h9-9-99--|--7h9-9--7h9--10--10-10--|
D|--7h9-9--7h9-9-99--|--7h9-9--7h9--10--10-10--|


  ----------------------------------------------------------------------------------------------------------||
  ----------------------------------------------------------------------------------------------------------||
  ----------------------------------------------------------------------------------------------------------||
  -------------------------------------------------------------------------------------11-11-11-11--9~~-----||
  --------------------------------------------------9-9-9-9--10-10-10-10--12-12-12-12-----------------------||
  --9-9-9-9--11-11-11-11--12-12-12-12--14-14-14-14----------------------------------------------------------||


Thnx  Mago


ORDER:

INTRO
CHORUS
VERSE
INTERLUDE
CHORUS
VERSE
INTERLUDE
CHORUS
BRIDGE
INTERLUDE2
INTERLUDE
CHORUSX2


Thnx
Mago
            
Submit corrections



        Sagrada Trobar lessons Hard to play? Try these video lessons and learn fast Sagrada Trobar lessons
        
↑ Back to top | Tablatures and chords for acoustic guitar and electric guitar, ukulele, drums are parodies/interpretations of the original songs. You may use it for private study, scholarship, research or language learning purposes only