Home » I » In Extremo »

In Extremo - Quid Pro Quo Chords

Artists:  A B C D E F G H I J K L M N O P Q R S T U V W X Y Z # 

Quid Pro Quo Chords

(ver. 1) Click to play this song!
In Extremo
[Verse I]
G|----------------|----------------|----------------|----------------|
D|----------------|----------------|----------------|----------------|
A|----------------|----------------|----------------|----------------| 4x
E|------3.--4-----|------2.--1-----|------3.--4-----|--------3-------|
B|1-1-1---------1-|1-1-1-----------|1-1-1---------1-|4-1-1-1---1-1---|

[Interlude I]
G|----------------|----------------|----------------|----------------|
D|----------------|----------------|----------------|----------------|
A|----------------|----------------|----------------|----------------|
E|4-4-4.--4-4.--4-|4-4-4.--4-4.--4-|4-4-4.--4-4.----|----------------|
B|----------------|----------------|----------------|1-1-1-1-4-1-8\--|

[Verse II]
G|----------------|----------------|----------------|----------------|
D|----------------|----------------|----------------|----------------|
A|----------------|----------------|----------------|----------------| 4x
E|------3.--4-----|------2.--1-----|------3.--4-----|--------3-------|
B|1-1-1---------1-|1-1-1-----------|1-1-1---------1-|4-1-1-1---1-1---|

[Interlude II]
G|----------------|----------------|----------------|----------------|
D|----------------|----------------|----------------|----------------|
A|----------------|----------------|----------------|----------------|
E|4-4-4.--4-4.--4-|4-4-4.--4-4.--4-|4-4-4.--4-4.----|--------5-------|
B|----------------|----------------|--------------1-|1-1-1-1---1-6\--|

[Chorus I]
Key --> C major
G|----------------|----------------|----------------|----------------|----------------|----------------|
D|----------------|----------------|----------------|----------------|----------------|----------------|
A|0-0-0-0-0-7-7---|----------------|----------------|----------5-----|0-0-0-0-0-7-7---|----------------|
E|--------------8-|1-1-1-1-1-1-1-1-|--------------1-|3-3-3-3-3---3-4-|--------------8-|1-1-1-1-1-1-1-1-|
B|----------------|----------------|1-1-1-1-1-1-1---|----------------|----------------|----------------|

G|----------------|----------------|----------------|----------------|----------------|----------------|
D|----------------|----------------|----------------|----------------|----------------|----------------|
A|----------------|----------5-----|0-0-0-0-0-7-7---|----------------|----------------|----------5-----|
E|----------3---1-|3-3-3-3-3---3-4-|--------------8-|1-1-1-1-1-1-1-0-|--------------1-|3-3-3-3-3---3-4-|
B|1-1-1-1-1---1---|----------------|----------------|----------------|1-1-1-1-1-1-1---|----------------|

G|----------------|----------------|----------------|----------------|
D|----------------|----------------|----------------|----------------|
A|0-0-0-0-0-7-7---|----------------|----------------|----------------|
E|--------------8-|1-1-1-1-1-1-1-0-|--------------1-|3-----3-----3-3-|
B|----------------|----------------|1-1-1-1-1-1-1---|----------------|
Rest 1 bar

[Verse III]
Key --> C minor
G|----------------|----------------|----------------|----------------|
D|----------------|----------------|----------------|----------------|
A|----------------|----------------|----------------|----------------| 3x
E|------3.--4-----|------2.--1-----|------3.--4-----|--------3-------|
B|1-1-1---------1-|1-1-1-----------|1-1-1---------1-|4-1-1-1---1-1---|

G|----------------|----------------|----------------|
D|----------------|----------------|----------------|
A|----------------|----------------|----------------|
E|------3.--4-----|------2.--1-1-1-|----------------|
B|1-1-1---------1-|1-1-1-----------|1.--------------|
Rest 1 bar

[Chorus II]
Key --> C major
G|----------------|----------------|----------------|----------------|
D|----------------|----------------|----------------|----------------|
A|0-0-0-0-0-7-7---|----------------|----------------|----------------| 2x
E|--------------8-|1-1-1-1-1-1-1-1-|--------------1-|3-3-3-3-3-3-3-3-|
B|----------------|----------------|1-1-1-1-1-1-1---|----------------|

G|----------------|----------------|----------------|----------------|----------------|----------------|
D|----------------|----------------|----------------|----------------|----------------|----------------|
A|0-0-0-0-0-7-7---|----------------|----------------|----------5-----|0-0-0-0-0-7-7---|----------------|
E|--------------8-|1-1-1-1-1-1-1-0-|----------------|3-3-3-3-3---3-4-|--------------8-|1-1-1-1-1-1-1-0-|
B|----------------|----------------|1-1-1-1-1-1-1-1-|----------------|----------------|----------------|

G|----------------|----------------|
D|----------------|----------------|
A|----------------|----------------|
E|--------------1-|3-3-3-3-3-3-3-4-|
B|1-1-1-1-1-1-1---|----------------|

[Instrumental]
G|----------------|----------------|----------------|----------------|----------------|----------------|
D|----------------|----------------|----------------|----------------|----------------|----------------|
A|0-0-0-0-0-7-7---|----------------|----------------|----------5-----|0-0-0-0-0-7-7---|----------------|
E|--------------8-|1-1-1-1-1-1-1-0-|--------------1-|3-3-3-3-3---3-4-|--------------8-|1-1-1-1---1-1-0-|
B|----------------|----------------|1-1-1-1-1-1-1---|----------------|----------------|----------------|

G|----------------|----------------|----------------|----------------|----------------|----------------|
D|----------------|----------------|----------------|----------------|----------------|----------------|
A|----------------|----------5-----|0-0-0-0-0-7-7---|----------------|----------------|----------5-----|
E|----------------|3-3-3-3-3---3-4-|--------------8-|1-1-1-1-1-1-1-0-|--------------1-|3-3-3-3-3---3-4-|
B|1-1-1-1-1-1-1-1-|----------------|----------------|----------------|1-1-1-1-1-1-1---|----------------|

G|----------------|----------------|----------------|----------------|
D|----------------|----------------|----------------|----------------|
A|0-0-0-0-0-7-7---|----------------|----------------|----------5-----|
E|--------------0-|1-1-1-1---1-1---|--------------1-|3-3-3-3-3---3---|
B|----------------|----------------|1-1-1-1-1-1-1---|----------------|

[Chorus III]
G|----------------|----------------|----------------|----------------|----------------|----------------|
D|----------------|----------------|----------------|----------------|----------------|----------------|
A|0-0-0-0-0-7-7---|----------------|----------------|----------5-----|0-0-0-0-0-7-7---|----------------|
E|--------------8-|1-1-1-1-1-1-1-0-|----------------|3-3-3-3-3---3-4-|--------------8-|1-1-1-1-1-1-1-0-|
B|----------------|----------------|1-1-1-1-1-1-1-1-|----------------|----------------|----------------|

G|----------------|----------------|----------------|----------------|----------------|----------------|
D|----------------|----------------|----------------|----------------|----------------|----------------|
A|----------------|----------5-----|0-0-0-0-0-7-7---|----------------|----------------|----------5-----|
E|--------------1-|3-3-3-3-3---3-4-|--------------8-|1-1-1-1-1-1-1-0-|--------------1-|3-3-3-3-3---3-4-|
B|1-1-1-1-1-1-1---|----------------|----------------|----------------|1-1-1-1-1-1-1---|----------------|

G|----------------|----------------|----------------|----------------|----------------|----------------|
D|----------------|----------------|----------------|----------------|----------------|----------------|
A|0-0-0-0-0-7-7---|----------------|----------------|----------------|----------------|----------------|
E|--------------8-|1-1-1-1-1-1-1-0-|--------------1-|3-3-3-3-3-3-3-3-|----------------|----------------|
B|----------------|----------------|1-1-1-1-1-1-1---|----------------|2---2-2-2-2-2-1~|----------------|            
Submit corrections

↑ Back to top | Tablatures and chords for acoustic guitar and electric guitar, ukulele, drums are parodies/interpretations of the original songs. You may use it for private study, scholarship, research or language learning purposes only