Home » I » In Extremo »

In Extremo - In Extremo Bass

Artists:  A B C D E F G H I J K L M N O P Q R S T U V W X Y Z # 

In Extremo Bass

(ver. 1) Click to play this song!
In Extremo
 Rating:
4/5 (4 votes)
                          In Extremo
        - In Extremo -
      Verehrt und Angespien
 


Just a conversion from my guitar pro version to a text file.

Tuning: Standard E (E A D G)

BPM: 175


Riff Section:
-------------

Intro/Outro

    E E E E E E E E   E E E E E Q.3x E E E E E E E E   E E E E E Q.
G|------------------|--------------|-----------------|-------------|
D|o-----5-2-----5-2-|-------------o|-----5-2-----5-2-|-------------|
A|o-----------------|-------------o|-----------------|-------------|
E|--2-2-----2-2-----|-2-2-0-2-3-5--|-2-2-----2-2-----|-2-2-0-2-3-3-|
                

Pre-Verse

    E E E E E E E E   E E E E E E E E   E E E E E E E E   E E E E E E E E  2x
G|------------------|-----------------|-----------------|------------------|
D|o-----------------|-----------------|-----------------|-----------------o|
A|o-0-0-0-0-0-0-0-0-|-0-0-0-0-0-0-0-0-|-----------------|---3h5-----5p3---o|
E|------------------|-----------------|-3-3-3-3-3-3-3-3-|-3-----3-3-----3--|


    E E Q  E E Q   E E Q  E E Q   E E Q  E E Q   E E Q  E E E  2x
G|---------------|--------------|--------------|---------------|
D|o--------------|--------------|--------------|--------------o|
A|o-0-0-0--0-0-0-|-0-0-0--0-0-0-|-0-0-0--------|-0-0-0--0-0-0-o|
E|---------------|--------------|--------3-3-3-|---------------|



Main Riff

   E E E E E E E E   Q  E E E E E E   E E E E E E E E    E  E E E E E E E
G|-----------------|----------------|-----------------|-------------------|
D|-----------------|----------------|-----------------|-------------------|
A|-----7-----5-----|-7--------------|-----7-----5---7-|-(7)---------------|
E|-0-0---0-0---0-0-|----0-0-0-0-0-0-|-0-0---0-0---0---|-----6-6-6-6-6-6-6-|

  
Chorus

   Q  Q  Q  Q   Q  Q  Q  Q   Q  Q  Q  Q   Q  Q  Q  Q
G|------------|------------|------------|------------|
D|------------|------------|------------|------------|
A|-5--5--5--5-|------------|------------|------------|
E|------------|-6--6--6--6-|-5--5--5--5-|-5--5--5--5-|


   Q  Q  Q  Q   Q Q Q Q Q Q   Q  Q  Q  Q   Q  Q  Q  Q
G|------------|-------------|------------|--------------|
D|------------|-------------|------------|--------------|
A|-5--5--5--5-|-------------|------------|--------------|
E|------------|-6-6-6-6-6-6-|-5--5--5--5-|-5--5--5--12\-|
                |-3-| |-3-|


Interlude

    E E E E E E E E   E E E E E E E E   E E E E E E E E   E E E E E E E E 3x then |
G|------------------|-----------------|-----------------|------------------|      |
D|o-----------------|-----------------|-----------------|-----------------o|      |
A|o-----------------|-----------------|-----------------|-----------------o|      |
E|--5-5-5-5-5-5-5-5-|-3-3-3-3-3-3-3-3-|-2-2-2-2-2-2-2-2-|-1-1-1-1-1-1-1-1--|      |

  E E E E E E E E   E E E E E E E E   E E E E E E E E   E E E E E E E E
|-----------------|-----------------|-----------------|-----------------|
|-----------------|-----------------|-----------------|-3-3-3-3-3-2-2-2-|
|-0-0-0-0-0-0-0-0-|-2-2-2-2-2-2-2-2-|-4-4-4-4-4-4-4-4-|-----------------|
|-----------------|-----------------|-----------------|-----------------|


Last Note

   H  H
G|------| 
D|----R-| 
A|------|
E|-5\---|
      
                    

Song Structure:
---------------
Intro        1x
Pre-Verse    1x
Main Riff    6x
Chorus       1x
Main Riff    6x
Chorus       1x
Pre-Verse    1x
Main Riff    6x
Chorus       1x
Interlude    1x
Pre-Verse    1x
Outro        1x
Last Note    1x


Description:
------------
(x) -> let ring | o -> repat | h -> hammer-on | \ -> slide down | |-3-| -> triplet | p -> pull-off
                | o          |                |                 |                  | 

W -> whole note | H -> half note | Q -> quarter note | E -> eighth note | . -> dotted note
            
Submit corrections

↑ Back to top | Tablatures and chords for acoustic guitar and electric guitar, ukulele, drums are parodies/interpretations of the original songs. You may use it for private study, scholarship, research or language learning purposes only