» » »

In Extremo - Ai Vis Lo Lop Tabs

Artists:  A B C D E F G H I J K L M N O P Q R S T U V W X Y Z # 

Ai Vis Lo Lop Tabs

(ver. 1) Click to play this song!
In Extremo
 Rating:
4/5 (4 votes)

 Ai Vis Lo Lop lessons Tabs too difficult? Try these video lessons and learn fast
 
                            In Extremo
        - Ai Vis Lo Lop -
         Weckt die Toten!
 


Just a conversion from my guitar pro version to a text file.

Tuning: Standard E (E A D G B E)

BPM: 175


Riff Section:
-------------

Intro (acoustic guitar)

   E.S E E E.S E E   E.S E E E E E.S
E|-0-0-0-0-0-0-0-0-|-0-0-0-0-0-0-0-0-|
B|-3-3-3-3-3-3-3-3-|-3-3-3-3-3-3-3-3-| with some 
G|-2-2-2-2-2-2-2-2-|-2-2-2-2-2-2-2-2-| variations
D|-0-0-0-0-0-0-0-0-|-0-0-0-0-0-0-0-0-|
A|-0-0-0-0-0-0-0-0-|-0-0-0-0-0-0-0-0-|
E|-----------------|-----------------|
                

Pre-Verse A

    E SSSS E SSSS   E SSSS E SSSS   E SSSS E SSSS   Q Q E E Q Q Q  4x
E|----------------|---------------|---------------|----------------|
B|----------------|---------------|---------------|----------------| on the last repeat
G|o---------------|---------------|---------------|---------------o| play the last bar
D|o-7------3------|-5------7------|-7------3------|---------------o| two times
A|--7------3------|-5------7------|-7------3------|----------------|
E|--5-5555-1-3333-|-3-3333-5-5555-|-5-5555-1-1111-|-3-3-3-3-3-3-3--|
      ....   ....     ....   ....     ....   ....   . . . . . . .
                                                    | - - 3 - - |
    
Pre-Verse B (maybe not quite accurate)

   H   E  E E E   H. Q   H. Q     H  Q  E E   H.  E  E E E   H. Q   E E E E E E E     W
E|--------------|------|-------|-----3--3-3-|--------------|------|----------------|-----|
B|--------------|------|----3^-|-(3)-3--3-3-|--------------|------|-------3-----3^-|-(3)-|
G|-7--(7)-------|------|----5|-|-(5)--------|-7--(7)-------|------|---------5---5|-|-(5)-|
D|-7--(7)-------|----5-|----5|-|-(5)--------|-7--(7)-------|----5-|-3-2-0-----5-5|-|-(5)-|
A|-5--(5)---5-7-|-8----|-3--3|-|-(3)--------|-5--(5)---5-7-|-8----|-------------3|-|-(3)-|
E|--------5-----|------|-------|------------|--------5-----|------|----------------|-----|
                  ~      ~                                   ~      
  
Verse 

   E E E E E E E E   E E E E E E E E   E E E E E E E E   Q  Q  Q  Q  
E|-----------------|-----------------|-----------------|------------|
B|-----------------|-----------------|-----------------|------------|
G|-----------------|-----------------|-----------------|-5--3--7--7-|
D|-7-7-7-7-7-7-7-7-|-3-3-3-3-3-3-3-3-|-5-5-5-5-5-5-5-5-|-5--3--7--7-|
A|-5-5-5-5-5-5-5-5-|-1-1-1-1-1-1-1-1-|-3-3-3-3-3-3-3-3-|-3--1--5--5-|
E|-----------------|-----------------|-----------------|------------|
   . . . . . . . .   . . . . . . . .   . . . . . . . .


Interlude

   Q  E E E Q  E E E   Q  E E E Q  E.E.E   Q  E E E Q  E E E   Q  E E E Q  E E E 
E|-------------------|-------------------|-------------------|-------------------|
B|-------------------|-------------------|-------------------|-------------------|
G|-------------------|-------------------|-------------------|-------------------|
D|-7--------7--------|-7--------7--7-7-7-|-5--------5--------|-5--------5--------|
A|-5--5-5-5-5--5-5-5-|-5--5-5-5-5--5-5-5-|-3--3-3-3-3--3-3-3-|-3--3-3-3-3--3-3-3-|
E|-------------------|-------------------|-------------------|-------------------|
      . . .    . . .      . . .               . . .    . . .      . . .    . . .
      |-3-|    |-3-|      |-3-|               |-3-|    |-3-|      |-3-|    |-3-|


Break A

   W
E|---|
B|---| 
G|-7-| let it 
D|-7-| ring
A|-5-|
E|---|
      
                     
Break B

   E E E E E E E E   E E E E E E E E   Q  H.  Q  Q  Q  Q
E|-----------------|-----------------|------|------------|
B|-----------------|-----------------|------|------------|
G|-----------------|-----------------|-5--R-|-5--3--7--7-|
D|-7-7-7-7-7-7-7-7-|-7-7-7-7-7-7-7-7-|-5----|-5--3--7--7-|
A|-5-5-5-5-5-5-5-5-|-5-5-5-5-5-5-5-5-|-3----|-3--1--5--5-|
E|-----------------|-----------------|------|------------|
   . . . . . . . .   . . . . . . . .


Break C

   E E E E E E E E   E E E E E E E E   E E E E E E E E   E E E E E E Q
E|-----------------|-----------------|-----------------|---------------|
B|-----------------|-----------------|-----------------|---------------|
G|-----------------|-----------------|-----------------|-------------R-|
D|-7-7-7-7-7-7-7-7-|-3-3-3-3-3-3-3-3-|-5-5-5-5-5-5-5-5-|-5-5-5-5-5-5---|
A|-5-5-5-5-5-5-5-5-|-1-1-1-1-1-1-1-1-|-3-3-3-3-3-3-3-3-|-3-3-3-3-3-3---|
E|-----------------|-----------------|-----------------|---------------|
   . . . . . . . .   . . . . . . . .   . . . . . . . .   . . . . . .


Break D

   W    W    W    W
E|---|-----|---|-----|
B|---|-----|---|-----|
G|-7-|-(7)-|---|-----|
D|-7-|-(7)-|---|-----|
A|-5-|-(5)-|---|-----|
E|---|-----|-0-|-(0)-|


Last Note

   W
E|---|
B|---|
G|---| let ring
D|-7-|
A|-7-|
E|-5-|


Additional stuff:
-----------------

Lead Guitar (from the "Kein Blick zurück" Version) during 'Interlude'

    W   H  Q  Q  Q   H  H   Q  Q  Q  H  2x 
E|----|------------|------|-------------|
B|----|------------|------|-------------|
G|o-7-|-7--9-10--9-|-7--5-|------------o|
D|o-X-|-X--X--X--X-|-X--X-|------------o|
A|--5-|-5--7--8--7-|-5--3-|-3--3--------|
E|----|------------|------|-------3--3--|
           |- 3 -|          |- 3 -|  ~  
then
    Q  Q  Q  Q Q   Q  Q  Q   Q  Q  Q   H  H   E. E. Q. Q  2x
E|---------------|-------------------|------|-------------|                 |-----------------|
B|---------------|-------------------|------|-------------| on the second   |-----------------|
G|o-7--8-11-11\7-|-7--9-11--12-11--9-|-7--5-|------------o| repeat replace  |-----------------|
D|o-X--X--X--X-X-|-X--X--X---X--X--X-|-X--X-|------------o| the last bar    |-X-X-X-X-X-X-X-X-|
A|--5--7--9--9\5-|-5--7--9--10--9--7-|-5--3-|-3--3--------| with this ->    |-X-X-X-X-X-X-X-X-|
E|---------------|-------------------|------|-------3--3--|                 |-----------------|
    |- 3 -|        |- 3 -|   |- 3 -|                ~  ~


Bagpipes during 'Pre-Verse A'

     Q   E  E     Q     Q      Q    Q   E  E  Q    Q   E  E     Q     Q |
E|--12--10-12-------------|-8h10-8h10-----------|-12--10-12-------------|
B|------------12h13-12h13-|------------13-12-10-|-----------12h13-12h13-|
G|o-----------------------|---------------------|-----------------------|
D|o-----------------------|---------------------|-----------------------|
A|------------------------|---------------------|-----------------------|
E|------------------------|---------------------|-----------------------|
                                                                        |

     Q    Q    Q    Q    Q    Q  2x
|-8h10-8h10-8h10-8h10-8h10-8h10--|
|--------------------------------|
|-------------------------------o|
|-------------------------------o|
|--------------------------------|
|--------------------------------|
     | -  3  - |    | -  3  - |

     E   E   E     Q        Q   Q   Q   Q    Q   E  E  E    Q    E      Q   Q   H  2x
E|-----------------------|-----10---------|------------------------|---------------|
B|--10--12--13-12h13--12-|-13------12--10-|-13--12-13-10-8h10-8h10-|-8h10------10--|
G|o----------------------|----------------|------------------------|-------12-----o|
D|o----------------------|----------------|------------------------|--------------o|
A|-----------------------|----------------|------------------------|---------------|
E|-----------------------|----------------|------------------------|---------------|
  


Song Structure:
---------------
Intro        8x
Pre-Verse  A 1x
Pre-Verse  B 1x
Verse        4x
Pre-Verse  B 1x
Verse        4x
Pre-Verse  B 1x
Interlude    4x
Pre-Verse  A 1x
Break A      1x
Break B      1x
Break C      1x
Break D      1x
Pre-Verse A  1x
Last Note    1x


Description:
------------
.-> palm mute | ~ -> vibrato | (x) -> let ring | o -> repat | ^ -> downstroke (slowly) |h -> hammer-on
              |              |                 | o          | |                        |

X -> dead note | |-3-| -> triplet | R -> pause

W -> whole note | H -> half note | Q -> quarter note | E -> eighth note | S -> 
sixteenth | . -> dotted note
            
Submit corrections


        Ai Vis Lo Lop lessons Hard to play? Try these video lessons and learn fast Ai Vis Lo Lop lessons
        
↑ Back to top | Tablatures and chords for acoustic guitar and electric guitar, ukulele, drums are parodies/interpretations of the original songs. You may use it for private study, scholarship, research or language learning purposes only