Home » I » Indiana Bible College »

Indiana Bible College - I Extend Mercy Tabs

Artists:  A B C D E F G H I J K L M N O P Q R S T U V W X Y Z # 

I Extend Mercy Tabs

(ver. 1) Click to play this song!
Indiana Bible College
 Rating:
2.4/5 (30 votes)
                E---------------------------------------------------------------------------------
A---------------------------------------------------------------------------------
D---------------------------------------------------------------------------------
G-----6---------8-----------------------------------------------------------------
b--------9-7-6--6-h/7-9--6-h/7-9-7-6----------------------------------------------
e---------------------------------------------------------------------------------

E---------------------------------------------------------------------------------
A---------------------------------------------------------------------------------
D---------------------------------------------------------------------------------
G-----6---------8-----------------------------------------------------------------
b--------9-7-6--6-h/7-s/9-11-11-11------------------------------------------------
e---------------------------------------------------------------------------------            
Submit corrections

↑ Back to top | Tablatures and chords for acoustic guitar and electric guitar, ukulele, drums are parodies/interpretations of the original songs. You may use it for private study, scholarship, research or language learning purposes only