Home » I » India Arie »

India Arie - Jana Gana Mana Tabs

Artists:  A B C D E F G H I J K L M N O P Q R S T U V W X Y Z # 

Jana Gana Mana Tabs

(ver. 1) Click to play this song!
India Arie
E|-----------------------------------------------------|
B|-----------------------------------------------------|
G|-----------------------------------------------------|
D|----0--2-2-2-2-2-2-2-2-2--0-2-3--2-2-2--0-0-0---0----|
A|--3-------------------------------------------2---3--|
E|-----------------------------------------------------|

E|----------------------------------------------------------|
B|----------------------------------------------------------|
G|--0-0-0-0-0-0-0-0-0-0----2-0------------------------------|
D|-----------------------4-----3-3-3--2-2-2-0-3-2-----------|
A|-3--------------------------------------------------------|
E|----------------------------------------------------------|

E|------------------------------------------------------|
B|------------------------------------------------------|
G|--------------0-0-0-----------------------------------|
D|--2-2-2-2-2-0-------3-3-3--2-2-2---0-0-0-0----0-------|
A|--------------------------------------------2---3-----|
E|------------------------------------------------------|

E|------------------------------------------------------|
B|------------------------------------------------------|
G|-------------------------0-0-0------------------------|-
D|---0-2-2-2-2--0-2-3--2-3-------3-2-0--0-3-2-----------|
A|-3----------------------------------------------------|
E|------------------------------------------------------|

E|-------------------------------------------------------------------|
B|-------------------------------------------------------------------|
G|---------------------0-0-0-0-0-0-0-0-0-0---2-0---------------------|
D|--2-2-0-0-0-0---0------------------------4-----3-3-3--2-2-2-0-2-3--|
A|--------------2---3------------------------------------------------|
E|-------------------------------------------------------------------|

E|--------------------------------------------------|
B|--0-0-1--0---0------------------------------------|
G|-----------2---0-0-2---------------0-2-3----------|
D|---------------------------0-0-2-2----------------|
A|---------------------3-3-3------------------------|
E|--------------------------------------------------|            
Submit corrections

↑ Back to top | Tablatures and chords for acoustic guitar and electric guitar, ukulele, drums are parodies/interpretations of the original songs. You may use it for private study, scholarship, research or language learning purposes only