» » »

I Am Not Not My Hair Tabs - India Arie

Artists:  A B C D E F G H I J K L M N O P Q R S T U V W X Y Z # 

I Am Not Not My Hair Tabs

(ver. 1) Click to play this song!
India Arie
4/5 (4 votes)
    I Am Not Not My Hair lessons Tabs too difficult? Try these video lessons and learn fast
I Am Not My Hair
Testimony: Vol 1. Life & Relationship

 e |----------------------------------------------------|
B |-----------------------------------------------------|
G |-----------------------------------------------------|
D |----------------------5---5---3---3----1------0-0-0--|
A |------2----------------------------------------------|
E |------------3----------------------------------------|

                  (This is an alternate to the above tab)
 e  |--------------------------------------------------|
 B |---------------------------------------------------|
 G |---------------------------------------------------|
 D |---------------------------------------------------|
 A |---------------------------------------------------|
 E |------7----3----15---15--- 13---13---11--10-10-10--|

Repeat this until…..

 e |-----------------------------------------------------------------------------------|
B |------------------------------------------------------------------------------------|
G |------------------------------------------------0-----------------------------------|
D |---------------------------------1-----1-3-------3-0-----------0--------------------|
A |------2----------0-2--------------------------------------1-3-----------3----3-3-3--|
E |------------3-------------3-------------------------------------------3-------------|

It’s really easy to play… just listen to it and understand how it sounds before you do
Submit corrections

↑ Back to top | Tablatures and chords for acoustic guitar and electric guitar, ukulele, drums are parodies/interpretations of the original songs. You may use it for private study, scholarship, research or language learning purposes only