» » »

Ignite - Live For Better Days Tabs

Artists:  A B C D E F G H I J K L M N O P Q R S T U V W X Y Z # 

Live For Better Days Tabs

(ver. 1) Click to play this song!
Ignite
 Rating:
4.4/5 (7 votes)

 Live For Better Days lessons Tabs too difficult? Try these video lessons and learn fast
 
                [Verse]

   Save it for tomorrow ...
d#|---------------------------------|
A#|---------------------------------|
F#|-2-2-2-2-----------------2-2-2-2-|
C#|-0-0-0-0-2-2-2-2-0-0-0-0-0-0-0-0-|
G#|---------0-0-0-0-x-x-x-x---------|
D#|-----------------3-3-3-3---------| x2

[Chorus]

   So I say goodnight ...
d#|-x-x-3-2-------------------------|
A#|-3-3-3-3-3-3-3-3-3-3-3-3-2-2-2-2-|
F#|-2-2-2-2-x-x-x-x-4-4-4-4-2-2-2-2-|
C#|-0-0-0-0-0-0-0-0-4-4-4-4-2-2-2-2-|
G#|---------x-x-x-x-2-2-2-2-0-0-0-0-|
D#|---------3-3-3-3-----------------| x2


[Intermezzo]

d#|---------------------------------|
A#|---------------------------------|
F#|-2-2-2-2-2-2-2-2-2-2-2-2-2-2-2-2-|
C#|-0-0-0-0-0-0-0-0-0-0-0-0-0-0-0-0-|
G#|---------x-x-x-x---------x-x-x-x-|
D#|---------3-3-3-3---------3-3-3-3-|

[Verse]

   Last night was wrong, it's morning ...
d#|---------------------------------|
A#|---------------------------------|
F#|/2-2-2-2-2-2-2-2-0-0-0-0-2-2-2-2-|
C#|-0-0-0-0-2-2-2-2-0-0-0-0-0-0-0-0-|
G#|---------0-0-0-0-x-x-x-x---------|
D#|-----------------3-3-3-3---------| x2

[Chorus]

   So I say goodnight ...
d#|-x-x-3-2-3-3-3-3-2-2-2-2---------|
A#|-3-3-3-3-3-3-3-3-3-3-3-3-2-2-3-3-|
F#|-2-2-2-2-0-0-0-0-4-4-4-4-2-2-2-2-|
C#|-0-0-0-0-0-0-0-0-4-4-4-4-2-2-2-2-|
G#|---------x-x-x-x-2-2-2-2-0-0-0-0-|
D#|---------3-3-3-3-----------------| x2

[Bridge]

     Oh,  I need to end this violence ...
D#|-5-5-5-5-2-2-2-2-5-5-5-5-5-5-5-5-|
A#|-3-3-3-3-3-3-3-3-5-5-5-5-3-3-3-3-|
F#|-0-0-0-0-4-4-4-4-6-6-6-6-0-0-0-0-|
C#|-0-0-0-0-4-4-4-4-7-7-7-7-0-0-0-0-|
G#|-x-x-x-x-2-2-2-2-7-7-7-7-x-x-x-x-|
D#|-3-3-3-3---------5-5-5-5-3-3-3-3-| x3


[Intermezzo]

   Silence in me,    silence in me
d#|---------------------------------|
A#|---------------------------------|
F#|-2-2-2-2-2-2-2-2-2-2-2-2-2-2-2-2-|
C#|-0-0-0-0-0-0-0-0-0-0-0-0-0-0-0-0-|
G#|---------x-x-x-x---------x-x-x-x-|
D#|---------3-3-3-3---------3-3-3-3-|

[Chorus]

   So I say goodnight ...
d#|-x-x-3-2-3-3-3-3-2-2-2-2---------|
A#|-3-3-3-3-3-3-3-3-3-3-3-3-2-2-3-3-|
F#|-2-2-2-2-0-0-0-0-4-4-4-4-2-2-2-2-|
C#|-0-0-0-0-0-0-0-0-4-4-4-4-2-2-2-2-|
G#|---------x-x-x-x-2-2-2-2-0-0-0-0-|
D#|---------3-3-3-3-----------------| x2
            
Submit corrections


        Live For Better Days lessons Hard to play? Try these video lessons and learn fast Live For Better Days lessons
        
↑ Back to top | Tablatures and chords for acoustic guitar and electric guitar, ukulele, drums are parodies/interpretations of the original songs. You may use it for private study, scholarship, research or language learning purposes only