Home » I » Iggy Pop »

Iggy Pop - Pussy Power Tabs

Artists:  A B C D E F G H I J K L M N O P Q R S T U V W X Y Z # 

Pussy Power Tabs

(ver. 1) Click to play this song!
Iggy Pop
   M M M M M M M M M M M M     M M M M M M M M 
e|----------------------------|----------------------------|
B|----------------------------|----------------------------|
G|----------------------------|----------------------------|
D|----------------------------|----------------------------|
A|----------------------------|--------------------3~------|
E|--1--0--0--0--1--0--0--0----|--1--0--0--0--1~------------| x4
 
Chorus 
e|---------------------------|---------------------------|
B|---------------------------|---------------------------|
G|---------------------------|---------------------------|
D|---------------------------|---------------------------|
A|---------------------------|--------------------3------|
E|-0--0--0--0--3--0--0--0----|--3--0--0--0--1------------| x4


Verse : 
   M M M M M M M M M M M M      M M M M M 
e|---------------------------|---------------------------|
B|---------------------------|---------------------------|
G|---------------------------|---------------------------|
D|----2--2--2-----2--2--2----|-----2--2--2---------------|
A|----2--2--2-----2--2--2----|-----2--2--2---------3-----|
E|-3--0--0--0--3--0--0--0----|--3--0--0--0----1----------| x4


Bridge :

|------------------------|------------------------|------------------------|---------------------|
|------------------------|------------------------|------------------------|---------------------|
|------------------------|------------------------|------------------------|---------------------|
|------------------------|------------------------|------------------------|---------------------|
|-0--0--0--0--0--0--0--0-|-2--2--2--2--2--2--2--2-|-3--3--3--3--3--3--3--3-|-5--5--5--5--5--5--5-|
|------------------------|------------------------|------------------------|---------------------| x4




----------------------------|----------------------------|
----------------------------|----------------------------|
--4M-------4M-------4M------|-----4M-------4-----4--4----|
--4M-x--x--4M-x--x--4M-x----|--x--4M-x--x--4--x--4--4----|
--2M-xM-xM-2M-xM-xM-2M-xM---|--xM-2M-xM-xM-2--xM-2--2----|
-----x--x-----x--x-----x----|--x-----x--x-----x----------|


----------------------------|----------------------------|
----------------------------|----------------------------|
--3M-------3M-------3M------|-----3M-------3-----3--3----|
--3M-x--x--3M-x--x--3M-x----|--x--3M-x--x--3--x--3--3----|
--1M-x--xM-1M-x--xM-1M-xM---|--xM-1M-xM-xM-1--xM-1--1----|
-----x--x-----x--x-----x----|--x-----x--x-----x----------|    repeat 2 times


Guitar II : Just strum the chords one times

Guitar III:

Bridge :

e|----------------|----------------|----------------|----------------|
B|------10--------|-----12---------|----13----------|----15----------|
G|----------------|----------------|----------------|----------------|
D|----------------|----------------|----------------|----------------|
A|----------------|----------------|----------------|----------------|
E|----------------|----------------|----------------|----------------|


Verse 2 :

e|----------------|
B|------17--------|
G|----------------|
D|----------------|
A|----------------|
E|----------------|

e|------15--------|
B|----------------|
G|----------------|
D|----------------|
A|----------------|
E|----------------|

e|------19--------|
B|----------------|
G|----------------|
D|----------------|
A|----------------|
E|----------------|

            
Submit corrections

↑ Back to top | Tablatures and chords for acoustic guitar and electric guitar, ukulele, drums are parodies/interpretations of the original songs. You may use it for private study, scholarship, research or language learning purposes only