» » »

Iggy Pop - Mass Production Tabs

Artists:  A B C D E F G H I J K L M N O P Q R S T U V W X Y Z # 

Mass Production Tabs

(ver. 1) Click to play this song!
Iggy Pop
 Rating:
4/5 (4 votes)
                
--------------------------------------------------------------------------------------------------

This song contains almost no guitar, so I will include tabs for the other instruments as well.
This song only has two chords: F7 and C. 
Most of the song is F7, but during the bridges it switches between F7 and C.




---Bass tab---------------------------------------------------------------------------------------

There are two bass lines. The first one is F7, and the second one is C.

   Q   E E Q   Q
e|-----------------|
B|-----------------|
G|-----------------|
D|-----3-3-3-------|
A|-----------------|
E|-1-----------1---|

   Q   E E Q   Q
e|-----------------|
B|-----------------|
G|-----------------|
D|-----------------|
A|-3---3-3-3---3---|
E|-----------------|

---Saxophone (?)----------------------------------------------------------------------------------

I think this is a saxophone, or something similar. This plays throughout the verses.

   E E Q   S E.  Q
e|-------------------|
B|-------------------|
G|-------------------|
D|-------------------|
A|-6-5-6---6-8---8---|
E|-------------------|

---Guitar-----------------------------------------------------------------------------------------

These arpeggios are played during the bridges. The first one is F7, the second one is C.
If you want to play along to the rest of the song, just strum F7.

   E E E E E E E E
e|------------------|
B|-----1---4-1---1--|
G|---2---2-----2----|
D|-3----------------|
A|------------------|
E|------------------|

   E E E E E E E E
e|------------------|
B|------------------|
G|-----0---3-0---0--|
D|---2---2-----2----|
A|-3----------------|
E|------------------|

---Synth------------------------------------------------------------------------------------------

This is played at the end of the song. 
It's slightly out of tune, so if you have a whammy bar, use it.

    Q    E  E Q   E E  Q   E  E Q   E E
e|---------------------------------------|
B|-13---11-13-9---6-8-11---9-11-8---4-6--|
G|---------------------------------------|
D|---------------------------------------|
A|---------------------------------------|
E|---------------------------------------|

--------------------------------------------------------------------------------------------------
            
Submit corrections

↑ Back to top | Tablatures and chords for acoustic guitar and electric guitar, ukulele, drums are parodies/interpretations of the original songs. You may use it for private study, scholarship, research or language learning purposes only