» » »

Ice Nine Kills - Savages Tabs

Artists:  A B C D E F G H I J K L M N O P Q R S T U V W X Y Z # 

Savages Tabs

(ver. 1) Click to play this song!
Ice Nine Kills
 Rating:
4.3/5 (20 votes)

 Savages lessons Tabs too difficult? Try these video lessons and learn fast
 
                0:00
[Intro]

C#|---------------------------|------------------------------|
G#|---------------------------|------------------------------|
E |---------------------------|------------------------------|
B |-7-0-0-0-0-7-0-0-0-7-8-7-0-|-7-0-0-0-0-10-12-10-0-7-8-7-0-|
F#|---------------------------|------------------------------|
B |---------------------------|------------------------------|
 
C#|---------------------------|---------------------------------|
G#|---------------------------|---------------------------------|
E |---------------------------|---------------------------------|
B |-7-0-0-0-0-7-0-0-0-7-8-7-0-|-7-0-0-0-0-14-15-14-0-12-14-12-0-|
F#|---------------------------|---------------------------------|
B |---------------------------|---------------------------------|


C#|---------------------------|------------------------------|
G#|---------------------------|------------------------------|
E |---------------------------|------------------------------|
B |-7-0-0-0-0-7-0-0-0-7-8-7-0-|-7-0-0-0-0-10-12-10-0-7-8-7-0-|
F#|---------------------------|------------------------------|
B |---------------------------|------------------------------|

  PM----------------	
C#|-----------------|
G#|-----------------|
E |-----------------|
B |-0-0-0-0-0-0-0-0-|
F#|-0-0-0-0-0-0-0-0-|
B |-0-0-0-0-0-0-0-0-|

0:15

C#|------------------------------|-------------------------------------|
G#|------------------------------|-------------------------------------|
E |------------------------------|-------------------------------------|
B |-0-0-0-0-0-0-0--8-8-8-8-8-8-8-|-3-3-3-3-3-3-3--10-10-10-10-10-10-10-|
F#|-0-0-0-0-0-0-0--8-8-8-8-8-8-8-|-3-3-3-3-3-3-3--10-10-10-10-10-10-10-|
B |-0-0-0-0-0-0-0--8-8-8-8-8-8-8-|-3-3-3-3-3-3-3--10-10-10-10-10-10-10-|
      >              >              >               >

0:22
[Verse 1]

C#|---------------------------------------|---------------------------------------|
G#|---------------------------------------|---------------------------------------|
E |---------------------------------------|---------------------------------------|
B |---------------------------------------|---------------------------------------|
F#|---------------------------------------|---------------------------------------|
B |-0-0-0-0-0-0-0-0-0-0-0-0-0-0-0-8-8-8-8-|-0-0-0-0-0-0-0-0-0-0-0-0-0-0-0-3-3-3-3-|
      >         >         >                 >         >       >         

C#|---------------------------------------|-------------------------------------------|
G#|---------------------------------------|-------------------------------------------|
E |---------------------------------------|-------------------------------------------|Play this and bar
B |---------------------------------------|-------------------------------------------|above x2 (missing out 
F#|---------------------------------------|-------------------------------------------|the 4 12's second time)
B |-0-0-0-0-0-0-0-0-0-0-0-0-0-0-0-8-8-8-8-|-0-0-0-0-0-0-0-0-0-0-0-0-0-0-0-12-12-12-12-|
      >         >         >                 >         >       >

0:52
[Chorus 1]      
C#|------------------------------|-------------------------------------|
G#|------------------------------|-------------------------------------|
E |------------------------------|-------------------------------------|
B |-0-0-0-0-0-0-0--8-8-8-8-8-8-8-|-3-3-3-3-3-3-3--10-10-10-10-10-10-10-| Play x3
F#|-0-0-0-0-0-0-0--8-8-8-8-8-8-8-|-3-3-3-3-3-3-3--10-10-10-10-10-10-10-|
B |-0-0-0-0-0-0-0--8-8-8-8-8-8-8-|-3-3-3-3-3-3-3--10-10-10-10-10-10-10-|
      >              >              >               >

1:13
[Verse 2]

C#|---------------------------------------|---------------------------------------|
G#|---------------------------------------|---------------------------------------|
E |---------------------------------------|---------------------------------------|
B |---------------------------------------|---------------------------------------|
F#|---------------------------------------|---------------------------------------|
B |-0-0-0-0-0-0-0-0-0-0-0-0-0-0-0-8-8-8-8-|-0-0-0-0-0-0-0-0-0-0-0-0-0-0-0-3-3-3-3-|
      >         >         >                 >         >       >      

C#|---------------------------------------|-------------------------------------------|
G#|---------------------------------------|-------------------------------------------|
E |---------------------------------------|-------------------------------------------|Play this and bar
B |---------------------------------------|-------------------------------------------|above x2 (missing out 
F#|---------------------------------------|-------------------------------------------|the 4 12's second time)
B |-0-0-0-0-0-0-0-0-0-0-0-0-0-0-0-8-8-8-8-|-0-0-0-0-0-0-0-0-0-0-0-0-0-0-0-12-12-12-12-|
      >         >         >                 >         >       >


1:42
[Chorus 2]      
C#|------------------------------|-------------------------------------|
G#|------------------------------|-------------------------------------|
E |------------------------------|-------------------------------------|
B |-0-0-0-0-0-0-0--8-8-8-8-8-8-8-|-3-3-3-3-3-3-3--10-10-10-10-10-10-10-| Play x3
F#|-0-0-0-0-0-0-0--8-8-8-8-8-8-8-|-3-3-3-3-3-3-3--10-10-10-10-10-10-10-|
B |-0-0-0-0-0-0-0--8-8-8-8-8-8-8-|-3-3-3-3-3-3-3--10-10-10-10-10-10-10-|
      >              >              >               >

1:58
[Solo]

C#|-----------------------------------------------|----------------------------------------------------|
G#|-10---10---10---10/11--10---10---13------------|-15----15----17----18-----22----22----22------------|
E |----7----7----7-----------7----7----12--14--15-|----14----14----14----14-----19----19----19--21b22--|
B |-----------------------------------------------|----------------------------------------------------|
F#|-----------------------------------------------|----------------------------------------------------|
B |-----------------------------------------------|----------------------------------------------------|

     
C#|-22----------------------22----------------------|-17h18p17-15----------------------------------15--17-|
G#|----15-17-18-20-18-17-15----15-17-18-20-18-17-15-|-------------18-17-15-17-15----------15-17-18--------|
E |-------------------------------------------------|----------------------------14-15-17-----------------|
B |-------------------------------------------------|-----------------------------------------------------| 
F#|-------------------------------------------------|-----------------------------------------------------|
B |-------------------------------------------------|-----------------------------------------------------|

C#|-17p13------13h17h18p17p13--------|
G#|------15--15--------------15------|
E |--------14------------------14/12-|
B |----------------------------------|
F#|----------------------------------|
B |----------------------------------|

C#|----------------------------------------------------------------15-17-18-17-|
G#|-------------------------------------------------------15-17-18-------------|
E |-------------------------------------14-15-17-14-15-17----------------------|
B |-------------------14-15-17-14-15-17----------------------------------------|
F#|-12-13-15-13-15-17----------------------------------------------------------|
B |----------------------------------------------------------------------------|


2:13
[Bridge]      
C#|------------------------------|---------------|
G#|------------------------------|---------------|
E |------------------------------|---------------|
B |-0-0-0-0-0-0-0--8-8-8-8-8-8-8-|-3-3-3-3-3-3-3-|
F#|-0-0-0-0-0-0-0--8-8-8-8-8-8-8-|-3-3-3-3-3-3-3-|
B |-0-0-0-0-0-0-0--8-8-8-8-8-8-8-|-3-3-3-3-3-3-3-|
      >              >              >        

2:20
[Chorus 3 + Outro]      
C#|------------------------------|-------------------------------------|
G#|------------------------------|-------------------------------------|
E |------------------------------|-------------------------------------|
B |-0-0-0-0-0-0-0--8-8-8-8-8-8-8-|-3-3-3-3-3-3-3--10-10-10-10-10-10-10-| Play x5
F#|-0-0-0-0-0-0-0--8-8-8-8-8-8-8-|-3-3-3-3-3-3-3--10-10-10-10-10-10-10-|
B |-0-0-0-0-0-0-0--8-8-8-8-8-8-8-|-3-3-3-3-3-3-3--10-10-10-10-10-10-10-|
      >              >              >               >     

            
Submit corrections


        Savages lessons Hard to play? Try these video lessons and learn fast Savages lessons
        
↑ Back to top | Tablatures and chords for acoustic guitar and electric guitar, ukulele, drums are parodies/interpretations of the original songs. You may use it for private study, scholarship, research or language learning purposes only