» » »

Iced Earth - Slave To The Dark Bass

Artists:  A B C D E F G H I J K L M N O P Q R S T U V W X Y Z # 

Slave To The Dark Bass

(ver. 2) Click to play this song!
Iced Earth
 Rating:
4/5 (4 votes)


 Slave To The Dark lessons Tabs too difficult? Try these video lessons and learn fast
 
                                              Slave To The Dark                                 


                                                                      Iced Earth
Bass
Tempo : 100



      Intro ( Tempo : 76 )                                
      H.                   E  S S    H.           E  S S  
F#||------------------------------|----------------------|
C#||------------------------------|----------------------|
G#||------------------------------|--------------------3-|
D#||--5--------------------L--L-3-|--5------------L--L---|


                                                   1st Verse            
  H        Q    E  S S    H.           E  S S      H.           E  S S  
-----------------------|----------------------||-----------------------|
-----------------------|----------------------||*----------------------|
--5--------3----L--L---|----------------------||*----------------------|
---------------------3-|--5------------L--L-3-||---5------------L--L-3-|


  H.           E  S S    H        Q    E  S S    H.           E  S S    
----------------------|-----------------------|-----------------------||
----------------------|-----------------------|----------------------*||
--------------------3-|--5--------3----L--L---|----------------------*||
--5------------L--L---|---------------------3-|--5------------L--L-3--||


  Pre-Vers                                                      
  E        S E  S E  S E  S E  E     E  S E  S E  S E  S E  E   
----------------------------------|----------------------------|
----------------------------------|----------------------------|
--0--------L-0--L-0--L-0--L-1--1--|--0--L-0--L-0--L-0--L-1--1--|
----------------------------------|----------------------------|


  E  S E  S E  E  S E  S E     E  S E  S E  S E  S E  E   
----------------------------|----------------------------|
----------------------------|----------------------------|
---------------3--L-3--L-1--|--0--L-0--L-0--L-0--L-1--1--|
--3--L-3--L-3---------------|----------------------------|


    2nd Verse ( Tempo : 100 )                              
    S                         S S S S S S S S S S S E  E   
|---------------------------------------------------------|
|*--------------------------------------------------------|
|*--0-------------------------0-0-0-0-0-0-0-0-0-0-0-1--1--|
|---------------------------------------------------------|


  S S S S S S S S S S S S E  E     S S S S S S S S S S S S S S S S  
--------------------------------|----------------------------------|
--------------------------------|----------------------------------|
--0-0-0-0-0-0-0-0-0-0-0-0-1--1--|------------------3-3-3-3-3-3-1-1-|
--------------------------------|--3-3-3-3-3-3-3-3-----------------|


  S S S S S S S S S S S S E  E       S S S S S S S S S S S S E  E   
---------------------------------||--------------------------------|
--------------------------------*||--------------------------------|
--0-0-0-0-0-0-0-0-0-0-0-0-1--1--*||--0-0-0-0-0-0-0-0-0-0-0-0-1--1--|
---------------------------------||--------------------------------|


  S S S S S S S S S S S S S S S S    S S S S S S S S S S S S S S S S  
----------------------------------|----------------------------------|
----------------------------------|----------------------------------|
----------------------------------|----------------------------------|
--5-5-5-5-5-5-5-5-5-5-5-5-5-5-5-5-|--5-5-5-5-5-5-5-5-5-5-5-5-5-5-5-5-|


  S S S S S S S S S S S S S S S S    S S S S S S S S S S S S S S S S  
----------------------------------|----------------------------------|
----------------------------------|----------------------------------|
----------------------------------|----------------------------------|
--3-3-3-3-3-3-3-3-3-3-3-3-3-3-3-3-|--5-5-5-5-5-5-5-5-5-5-5-5-5-5-5-5-|


    3rd Verse                                                               
    S         S S S S S S S S S S S E  E     S S S S S S S S S S S S E  E   
|-----------------------------------------|--------------------------------|
|*----------------------------------------|--------------------------------|
|*--0---------0-0-0-0-0-0-0-0-0-0-0-1--1--|--0-0-0-0-0-0-0-0-0-0-0-0-1--1--|
|-----------------------------------------|--------------------------------|


  S S S S S S S S S S S S S S S S    S S S S S S S S S S S S E  E     
----------------------------------|---------------------------------||
----------------------------------|--------------------------------*||
------------------3-3-3-3-3-3-1-1-|--0-0-0-0-0-0-0-0-0-0-0-0-1--1--*||
--3-3-3-3-3-3-3-3-----------------|---------------------------------||


                                     Chorus                                
  S S S S S S S S S S S S E  E       S      S S S S S S S S S S S S S S S  
--------------------------------||----------------------------------------|
--------------------------------||*---------------------------------------|
--0-0-0-0-0-0-0-0-0-0-0-0-1--1--||*---------------------------------------|
--------------------------------||---5------5-5-5-5-5-5-5-5-5-5-5-5-5-5-5-|


  S S S S S S S S S S S S S S S S    S S S S S S S S S S S S S S S S  
----------------------------------|----------------------------------|
----------------------------------|----------------------------------|
----------------------------------|----------------------------------|
--5-5-5-5-5-5-5-5-5-5-5-5-5-5-5-5-|--3-3-3-3-3-3-3-3-3-3-3-3-3-3-3-3-|


                                        Solo I                               
  S S S S S S S S S S S S S S S S       S      S S S E  S S S  S S S E  S S  
-----------------------------------||---------------------------------------|
----------------------------------*||*--------------------------------------|
----------------------------------*||*--------------------------------------|
--5-5-5-5-5-5-5-5-5-5-5-5-5-5-5-5--||---3S-----5-5-5-5--5-5-3S-5-5-5-5--5-5-|


  S  S S S E  S S S  S E  E  E     S  S S S E  S S S  S S S E  S S  
--------------------------------|----------------------------------|
--------------------------------|----------------------------------|
--------------------------------|----------------------------------|
--3S-5-5-5-5--5-5-3S-5-5--6--6--|--1S-3-3-3-3--3-3-1S-3-3-3-3--3-3-|


  S  S S S E  S S S S S E.  E     S  S S S E  S S S  S S S E  S S  
-------------------------------|----------------------------------|
-------------------------------|----------------------------------|
------------------3-3-3-3---1--|----------------------------------|
--1S-3-3-3-3--3-3--------------|--3S-5-5-5-5--5-5-3S-5-5-5-5--5-5-|


  S  S S S E  S S S  S E  E  E     S  S S S E  S S S  S S S E  S S  
--------------------------------|----------------------------------|
--------------------------------|----------------------------------|
--------------------------------|----------------------------------|
--3S-5-5-5-5--5-5-3S-5-5--6--6--|--1S-3-3-3-3--3-3-1S-3-3-3-3--3-3-|


  S  S S S E  S S S S S E.  E       S S S S S S S S S S S S S S S S  
-------------------------------||-----------------------------------|
-------------------------------||*----------------------------------|
------------------3-3-3-3---1--||*----------------------------------|
--1S-3-3-3-3--3-3--------------||---5-5-5-5-5-5-5-5-5-5-5-5-5-5-5-5-|


  S S S S S S S S S S S S S S S S    S S S S S S S S S S S S S S S S  
----------------------------------|----------------------------------|
----------------------------------|----------------------------------|
----------------------------------|----------------------------------|
--3-3-3-3-3-3-3-3-3-3-3-3-3-3-3-3-|--1-1-1-1-1-1-1-1-1-1-1-1-1-1-1-1-|


                                    Solo II                               
  S S S S S S S S S S S E.  E       S       S S S E  S S S  S S S E  S S  
--------------------------------||---------------------------------------|
-------------------------------*||---------------------------------------|
------------------3-3-3-3---1--*||---------------------------------------|
--5-5-5-5-5-5-5-5---------------||--3S------5-5-5-5--5-5-3S-5-5-5-5--5-5-|


  S  S S S E  S S S  S E  E  E     S  S S S E  S S S  S S S E  S S  
--------------------------------|----------------------------------|
--------------------------------|----------------------------------|
--------------------------------|----------------------------------|
--3S-5-5-5-5--5-5-3S-5-5--6--6--|--1S-3-3-3-3--3-3-1S-3-3-3-3--3-3-|


  S  S S S E  S S S S S E.  E     S  S S S E  S S S  S S S E  S S  
-------------------------------|----------------------------------|
-------------------------------|----------------------------------|
------------------3-3-3-3---1--|----------------------------------|
--1S-3-3-3-3--3-3--------------|--3S-5-5-5-5--5-5-3S-5-5-5-5--5-5-|


  S  S S S E  S S S  S E  E  E     S  S S S E  S S S  S S S E  S S  
--------------------------------|----------------------------------|
--------------------------------|----------------------------------|
--------------------------------|----------------------------------|
--3S-5-5-5-5--5-5-3S-5-5--6--6--|--1S-3-3-3-3--3-3-1S-3-3-3-3--3-3-|


                                    4th Verse                              
  S  S S S E  S S S S S E.  E       S         S S S S S S S S S S S E  E   
-------------------------------||-----------------------------------------|
-------------------------------||*----------------------------------------|
------------------3-3-3-3---1--||*--0---------0-0-0-0-0-0-0-0-0-0-0-1--1--|
--1S-3-3-3-3--3-3--------------||-----------------------------------------|


  S S S S S S S S S S S S E  E     S S S S S S S S S S S S S S S S  
--------------------------------|----------------------------------|
--------------------------------|----------------------------------|
--0-0-0-0-0-0-0-0-0-0-0-0-1--1--|------------------3-3-3-3-3-3-1-1-|
--------------------------------|--3-3-3-3-3-3-3-3-----------------|


                                      Chorus                                
  S S S S S S S S S S S S E  E        S      S S S S S S S S S S S S S S S  
---------------------------------||----------------------------------------|
--------------------------------*||*---------------------------------------|
--0-0-0-0-0-0-0-0-0-0-0-0-1--1--*||*---------------------------------------|
---------------------------------||---5------5-5-5-5-5-5-5-5-5-5-5-5-5-5-5-|


  S S S S S S S S S S S S S S S S    S S S S S S S S S S S S S S S S  
----------------------------------|----------------------------------|
----------------------------------|----------------------------------|
----------------------------------|----------------------------------|
--5-5-5-5-5-5-5-5-5-5-5-5-5-5-5-5-|--3-3-3-3-3-3-3-3-3-3-3-3-3-3-3-3-|


  S S S S S S S S S S S S S S S S       S S S S S S S S S S S S S S S S  
-----------------------------------||-----------------------------------|
----------------------------------*||*----------------------------------|
----------------------------------*||*----------------------------------|
--5-5-5-5-5-5-5-5-5-5-5-5-5-5-5-5--||---5-5-5-5-5-5-5-5-5-5-5-5-5-5-5-5-|


  S S S S S S S S S S S S S S S S    S S S S S S S S S S S S S S S S  
----------------------------------|----------------------------------|
----------------------------------|----------------------------------|
----------------------------------|----------------------------------|
--3-3-3-3-3-3-3-3-3-3-3-3-3-3-3-3-|--1-1-1-1-1-1-1-1-1-1-1-1-1-1-1-1-|


  S S S S S S S S S S S E.  E       W                  
--------------------------------||-------------------||
-------------------------------*||-------------------||
------------------3-3-3-3---1--*||-------------------||
--5-5-5-5-5-5-5-5---------------||--0----------------||




Duration Legend
---------------
W - whole
H - half
Q - quarter
E - 8th
S - 16th
T - 32nd
X - 64th
. - note dotted
|-n-|  - n-tuplets


Tablature Legend
----------------
L - tied note
x - dead note
g - grace note
(n) - ghost note
> - accentuded note
NH - natural harmonic
AH - artificial harmonic
TH - tapped harmonic
SH - semi harmonic
PH - pitch harmonic
h - hammer on
p - pull off
b - bend
br - bendRelease
pb - preBend
pbr - preBendRelease
brb - bendReleaseBend
\n/ - tremolo bar dip
\n - tremolo bar dive
-/n - tremolo bar Release up
/n\ - tremolo bar inverted dip
/n - tremolo bar return
-\n - tremolo bar Release down
S - shift slide
s - legato slide
/ -  slide into from below or out of upwards
\ -  slide into from above or out of downwards
~ - vibrato
W - wide vibrato
tr - trill
TP - tremolo picking
T - tapping
S - slap
P - pop
< - fade in
^ - brush up
v - brush down
            
Submit corrections



        Slave To The Dark lessons Hard to play? Try these video lessons and learn fast Slave To The Dark lessons
        
↑ Back to top | Tablatures and chords for acoustic guitar and electric guitar, ukulele, drums are parodies/interpretations of the original songs. You may use it for private study, scholarship, research or language learning purposes only