» » »

Iced Earth - Burning Times Bass

Artists:  A B C D E F G H I J K L M N O P Q R S T U V W X Y Z # 

Burning Times Bass

(ver. 3) Click to play this song!
Iced Earth
 Rating:
4/5 (4 votes)


 Burning Times lessons Tabs too difficult? Try these video lessons and learn fast
 
                                                                             Iced Earth
Bass



      E  E  Q    H           W                   E  E  Q    H         
F#||----------------------|-------------------|----------------------|
C#||----------------------|-------------------|----------------------|
G#||----------------------|-------------------|----------------------|
D#||--0--0--0----L--------|--L----------------|--0--0--0----L--------|


  W                   E  E  Q    H           W                 
-------------------|----------------------|-------------------|
-------------------|----------------------|-------------------|
-------------------|----------------------|-------------------|
--L----------------|--0--0--0----L--------|--L----------------|


  Q    E  E  E  E  E  E     Q.     E  E  E  Q       E  E  E  E  E  E  E  E   
-------------------------|-----------------------|--------------------------|
-------------------------|-----------------------|--------------------------|
--3----3--3--3--5--L--2--|--L--------------------|--------------------------|
-------------------------|---------0--3--2--L----|--0--0--0--0--0--0--0--0--|


  E  E  E  E  E  E  E  E     E  E  E  E  E  E  E  E   
--------------------------|--------------------------|
--------------------------|--------------------------|
--------------------------|--------------------------|
--0--0--0--0--0--0--0--0--|--0--0--0--0--0--0--0--0--|


  E  E  E  E  E  E  E  E     E  E  E  E  E  E  E  E   
--------------------------|--------------------------|
--------------------------|--------------------------|
--------------------------|--------------------------|
--0--0--0--0--0--0--0--0--|--0--0--0--0--0--0--0--0--|


  E  E  E  E  E  E  E  E     Q    E  E  E  E  E  E     Q.     E  E  E  Q     
--------------------------|-------------------------|-----------------------|
--------------------------|-------------------------|-----------------------|
--------------------------|--3----3--3--3--5--L--2--|--L--------------------|
--0--0--0--0--0--0--0--0--|-------------------------|---------0--3--2--L----|


    E  E  E  E  E  E  E  E     E  E  E  E  E  E  E  E   
|---------------------------|--------------------------|
|*--------------------------|--------------------------|
|*--------------------------|--------------------------|
|---0--0--0--0--0--0--0--0--|--0--0--0--0--0--0--0--0--|


  E  E  E  E  E  E  E  E     E  E  E  E  E  E  E  E   4x
--------------------------|---------------------------||
--------------------------|--------------------------*||
--------------------------|--------------------------*||
--0--0--0--0--0--0--0--3--|--L--0--3--1--1--1--1--1---||


  E  E  E  E  E  E  E  E     E  E  E  E  E  E  E  E   
--------------------------|--------------------------|
--------------------------|--------------------------|
--------------------------|--------------------------|
--0--0--0--0--0--0--0--0--|--0--0--0--0--0--0--0--0--|


  E  E  E  E  E  E  E  E     E  E  E  E  E  E  E  E   
--------------------------|--------------------------|
--------------------------|--------------------------|
--------------------------|--------------------------|
--0--0--0--0--0--0--0--0--|--0--0--0--0--0--0--0--0--|


  E  E  E  E  E  E  E  E     E  E  E  E  E  E  E  E     Q    E  E  E  E  E  E   
--------------------------|--------------------------|-------------------------|
--------------------------|--------------------------|-------------------------|
--------------------------|--------------------------|--3----3--3--3--5--L--2--|
--0--0--0--0--0--0--0--0--|--0--0--0--0--0--0--0--0--|-------------------------|


  Q.     E  E  E  Q         E  E  E  E  E  E  E  E     E  E  E  E  E  E  E  E   
-----------------------||---------------------------|--------------------------|
-----------------------||*--------------------------|--------------------------|
--L--------------------||*--------------------------|--------------------------|
---------0--3--2--L----||---0--0--0--0--0--0--0--0--|--0--0--0--0--0--0--0--0--|


  E  E  E  E  E  E  E  E     E  E  E  E  E  E  E  E   4x
--------------------------|---------------------------||
--------------------------|--------------------------*||
--------------------------|--------------------------*||
--0--0--0--0--0--0--0--3--|--L--0--3--1--1--1--1--1---||


   E  E  E  E  E  E  E  E     E  E  E  E  E  E  E  E   
---------------------------|--------------------------|
*--------------------------|--------------------------|
*--------------------------|--------------------------|
---0--0--0--0--0--0--0--0--|--0--0--0--0--0--0--0--0--|


  E  E  E  E  E  E  E  E     E  E  E  E  E  E  E  E   
--------------------------|--------------------------|
--------------------------|--------------------------|
--------------------------|--------------------------|
--0--0--0--0--0--0--0--0--|--0--0--0--0--0--0--0--0--|


  E  E  E  E  E  E  E  E     E  E  E  E  E  E  E  E     Q    E  E  E  E  E  E   
--------------------------|--------------------------|-------------------------|
--------------------------|--------------------------|-------------------------|
--------------------------|--------------------------|--3----3--3--3--5--L--2--|
--0--0--0--0--0--0--0--0--|--0--0--0--0--0--0--0--0--|-------------------------|


  Q.     E  E  E  Q         E  E  E  E  E  E  E  E     E  E  E  E  E  E  E  E   
------------------------||--------------------------|--------------------------|
-----------------------*||--------------------------|--------------------------|
--L--------------------*||--------------------------|--------------------------|
---------0--3--2--L-----||--0--0--0--0--0--0--0--0--|--0--0--0--0--0--3--3--3--|


  E  E  E  E  E  E  E  E     E  E  E  E  E  E  E  E   
--------------------------|--------------------------|
--------------------------|--------------------------|
-----------------------1--|-----1-----1--0--0--0--0--|
--0--0--0--0--0--0--0-----|--0-----0-----------------|


  E  E  E  E  E  E  E  E     E  E  E  E  E  E  E  E   
--------------------------|--------------------------|
--------------------------|--------------------------|
--------------------------|--------------------------|
--0--0--0--0--0--0--0--0--|--0--0--0--0--0--3--3--3--|


  E  E  E  E  E  E  E  E     E  E  E  E  E  E  E  E     Q    E  E  E  E  E  E   
--------------------------|--------------------------|-------------------------|
--------------------------|--------------------------|-------------------------|
-----------------------1--|-----1-----1--0--0--0--0--|--3----3--3--3--5--L--2--|
--0--0--0--0--0--0--0-----|--0-----0-----------------|-------------------------|


  Q    E  E  E  E  E  E     Q    E  E  E  E  E  E     Q.     E  E  E  Q     
-------------------------|-------------------------|-----------------------|
-------------------------|-------------------------|-----------------------|
--L----2--2--2--2--2--2--|--3----3--3--3--5--L--2--|--L--------------------|
-------------------------|-------------------------|---------0--3--2--L----|


    E  E  E  E  E  E  E  E     E  E  E  E  E  E  E  E   
|---------------------------|--------------------------|
|*--------------------------|--------------------------|
|*--------------------------|--------------------------|
|---0--0--0--0--0--0--0--0--|--0--0--0--0--0--0--0--0--|


  E  E  E  E  E  E  E  E     E  E  E  E  E  E  E  E   4x
--------------------------|---------------------------||
--------------------------|--------------------------*||
--------------------------|--------------------------*||
--0--0--0--0--0--0--0--3--|--L--0--3--1--1--1--1--1---||


   E  E  E  E  E  E  E  E     E  E  E  E  E  E  E  E   
---------------------------|--------------------------|
*--------------------------|--------------------------|
*--------------------------|--------------------------|
---0--0--0--0--0--0--0--0--|--0--0--0--0--0--0--0--0--|


  E  E  E  E  E  E  E  E     E  E  E  E  E  E  E  E   
--------------------------|--------------------------|
--------------------------|--------------------------|
--------------------------|--------------------------|
--0--0--0--0--0--0--0--0--|--0--0--0--0--0--0--0--0--|


  E  E  E  E  E  E  E  E     E  E  E  E  E  E  E  E     Q    E  E  E  E  E  E   
--------------------------|--------------------------|-------------------------|
--------------------------|--------------------------|-------------------------|
--------------------------|--------------------------|--3----3--3--3--5--L--2--|
--0--0--0--0--0--0--0--0--|--0--0--0--0--0--0--0--0--|-------------------------|


  Q.     E  E  E  Q         W                   W                 
------------------------||-------------------|-------------------|
-----------------------*||-------------------|-------------------|
--L--------------------*||-------------------|-------------------|
---------0--3--2--L-----||-------------------|-------------------|


  W                   W                   W                   W                 
-------------------|-------------------|-------------------|-------------------|
-------------------|-------------------|-------------------|-------------------|
-------------------|-------------------|-------------------|-------------------|
-------------------|-------------------|-------------------|-------------------|


  W                   W                   Q    E  E  E  E  E  E   
-------------------|-------------------|-------------------------|
-------------------|-------------------|-------------------------|
-------------------|-------------------|--3----3--3--3--5--L--2--|
-------------------|-------------------|-------------------------|


  Q    E  E  E  E  E  E     Q    E  E  E  E  E  E     Q.     E  E  E  Q     
-------------------------|-------------------------|-----------------------|
-------------------------|-------------------------|-----------------------|
--L----2--2--2--2--2--2--|--3----3--3--3--5--L--2--|--L--------------------|
-------------------------|-------------------------|---------0--3--2--L----|


  Q    Q    H          
---------------------||
---------------------||
---------------------||
--0------------------||




Duration Legend
---------------
W - whole
H - half
Q - quarter
E - 8th
S - 16th
T - 32nd
X - 64th
. - note dotted
|-n-|  - n-tuplets


Tablature Legend
----------------
L - tied note
x - dead note
g - grace note
(n) - ghost note
> - accentuded note
NH - natural harmonic
AH - artificial harmonic
TH - tapped harmonic
SH - semi harmonic
PH - pitch harmonic
h - hammer on
p - pull off
b - bend
br - bendRelease
pb - preBend
pbr - preBendRelease
brb - bendReleaseBend
\n/ - tremolo bar dip
\n - tremolo bar dive
-/n - tremolo bar Release up
/n\ - tremolo bar inverted dip
/n - tremolo bar return
-\n - tremolo bar Release down
S - shift slide
s - legato slide
/ -  slide into from below or out of upwards
\ -  slide into from above or out of downwards
~ - vibrato
W - wide vibrato
tr - trill
TP - tremolo picking
T - tapping
S - slap
P - pop
< - fade in
^ - brush up
v - brush down
            
Submit corrections



        Burning Times lessons Hard to play? Try these video lessons and learn fast Burning Times lessons
        
↑ Back to top | Tablatures and chords for acoustic guitar and electric guitar, ukulele, drums are parodies/interpretations of the original songs. You may use it for private study, scholarship, research or language learning purposes only