» » »

Hyukoh - Mer Tabs

Artists:  A B C D E F G H I J K L M N O P Q R S T U V W X Y Z # 

Mer Tabs

(ver. 1) Click to play this song!
Hyukoh
 Rating:
4.4/5 (8 votes)

 Mer lessons Tabs too difficult? Try these video lessons and learn fast
 
                [Intro 1] x4 

Guitar 1 :

e|---------------------------------------------------------------------------|
B|---------------------------------------------------------------------------|
G|---------------------2/4----------------------2/4--------------------------|
D|-0-2-5-0-2-5-0-2-5-0------0-2-5-0-2-5-0-2-5-0------------------------------|
A|---------------------------------------------------------------------------|
E|---------------------------------------------------------------------------|

e|---------------------------------------------------------------------------|
B|---------------------3/5----------------------3/5--------------------------|
G|-0-4-5-0-4-5-0-2-5-0------0-4-5-0-4-5-0-2-5-0------------------------------|
D|---------------------------------------------------------------------------|
A|---------------------------------------------------------------------------|
E|---------------------------------------------------------------------------|

Chords played :
Guitar 2 

e|---------------------------------------------------------------------------|
B|-10-------3----------------------------------------------------------------|
G|-11-------4----------------------------------------------------------------|
D|-9---x4---2--x4------------------------------------------------------------|
A|-10-------3----------------------------------------------------------- ----|
E|---------------------------------------------------------------------------|

[Verse]

(Guitar 1)
     PM PM    PM PM   PM PM     PM PM    PM PM    PM PM    PM PM    PM PM    
e|----------------------------------------------------------------------------------------------|
B|-15------12-----------------------------------------------------------------------------------|
G|---14-14----12-12-14-------12-----------------------------------------------------------------|
D|---------------------14-14----12-12-14-------12-----------------------------------------------|
A|---------------------------------------14-14----12-12-14-------12----------12-14-----------10-|
E|---------------------------------------------------------15-15----12-12/---------10--10-12----|
         
      PM PM    PM PM   PM PM     PM PM    PM PM    PM PM    PM PM    PM PM
e|-------------------------------------15-------12---------------------------------------------||
B|-15-------12----------------------------15-15----12-12-15------------------------------------||
G|----14-14----12-12-14-------12----------------------------14-14-12---------------------------||
D|----------------------14-14----12-12-------------------------------12-12-14~--12-14~--12-14~-||
A|---------------------------------------------------------------------------------------------||
E|---------------------------------------------------------------------------------------------||

  -------A--------||-----B-----||
e|----------------||-----------||
B|----------------||-----------||
G|-------14p12----||-----------||
D|-12-14-------14-||-----------||
A|----------------||-----------||
E|----------------||--2b-------||

(Guitar 2 PM)

e|---------------------------------------------------------------------------|
B|-------------------------------------------------------------12------------|
G|-------12-------12-------12-------12-------12-------12----------14-12------|
D|-12-14----12-14----12-14----12-14----12-14----12-14----12-14----------14---|
A|---------------------------------------------------------------------------|
E|---------------------------------------------------------------------------|

e|-------------------------------------------------------------12------------||
B|----12-15----12-15----12-15----12-15----12-15----12-15----12----15-12------||
G|-14-------14-------14-------14-------14-------14-------14-------------14---||
D|---------------------------------------------------------------------------|| x3
A|---------------------------------------------------------------------------||
E|---------------------------------------------------------------------------||

e|---------------------------------------------------------------------------|
B|---------------------------------------------------------------------------|
G|-------12-------12-------12-------12-------12-------12-------12-------12---|
D|-12-14----12-14----12-14----12-14----12-14----12-14----12-14----12-14------|
A|---------------------------------------------------------------------------|
E|---------------------------------------------------------------------------|

e|---------------------------------------------------------------------------|
B|---------------------------------------------------------------------------|
G|---------------------------------------------------------------------------|
D|-------12-------12-------12-------12-------12------------------------------|
A|-12-14----12-14----12-14----12-14----12-14---------------------------------|
E|-------------------------------------------------------2b------------------|


[Chorus]

Guitar 1 :

e|-------------------------------------12-------------------------------------------------------||
B|-15~-12------15~-12------15~-12---------15-12-------------------------------------------------||
G|-------14-12-------14-12-------14-12----------14~-12------14~-12-------14~-------14-12--------||
D|----------------------------------------------------14-12-------14-12------12-14--------14-12-||x3
A|----------------------------------------------------------------------------------------------||
E|----------------------------------------------------------------------------------------------||

e|-------------------------12~----------15b-12-------17b-17-15----19b-17-15---------------------|
B|-15~-12------15~-12----------15-12-----------15-12-----------17-----------17-15~--------------|
G|-------14-12-------14-12-----------14---------------------------------------------------------|
D|----------------------------------------------------------------------------------------------|
A|----------------------------------------------------------------------------------------------|
E|----------------------------------------------------------------------------------------------|

Chords Guitar 2 :

e|-3--3-3-3-3-3--3-3-3-3-3--3-3-3-3-3--3-3-3-3-3--3-3-3-3-3--3-3-3-3-3--3-3-3-3-3--3-3-3-3-3--||
B|-3--3-3-3-3-3--3-3-3-3-3--3-3-3-3-3--3-3-3-3-3--3-3-3-3-3--3-3-3-3-3--3-3-3-3-3--3-3-3-3-3--||
G|-0--0-0-0-0-0--0-0-0-0-2--2-2-2-2-2--2-2-2-2-0--0-0-0-0-0--0-0-0-0-0--0-0-0-0-0--0-0-0-0-0--||
D|-2--2-2-2-2-2--2-2-2-2-0--0-0-0-0-0--0-0-0-0-2--2-2-2-2-2--2-2-2-2-2--2-2-2-2-2--2-2-2-2-2--||x3
A|-3--3-3-3-3-3--3-3-3-3-x--x-x-x-x-x--x-x-x-x-2--2-2-2-2-2--2-2-2-2-2--2-2-2-2-2--2-2-2-2-2--||
E|-x--x-x-x-x-x--x-x-x-x-x--x-x-x-x-x--x-x-x-x-0--0-0-0-0-0--0-0-0-0-0--0-0-0-0-0--0-0-0-0-0--||

e|-3--3-3-3-3-3--3-3-3-3-3--3-3-3-3-3--3-3-3-3-3--3-3-3-3-3--3-3-3-3-3--3-3-3-3-3--3-3-3-3-3--||
B|-3--3-3-3-3-3--3-3-3-3-3--3-3-3-3-3--3-3-3-3-3--3-3-3-3-3--3-3-3-3-3--3-3-3-3-3--3-3-3-3-3--||
G|-0--0-0-0-0-0--0-0-0-0-0--0-0-0-0-0--0-0-0-0-2--2-2-2-2-2--2-2-2-2-2--2-2-2-2-2--2-2-2-2-2--||
D|-2--2-2-2-2-2--2-2-2-2-2--2-2-2-2-2--2-2-2-2-0--0-0-0-0-0--0-0-0-0-0--0-0-0-0-0--0-0-0-0-0--||
A|-3--3-3-3-3-3--3-3-3-3-3--3-3-3-3-3--3-3-3-3-x--x-x-x-x-x--x-x-x-x-x--x-x-x-x-x--x-x-x-x-x--||
E|-x--x-x-x-x-x--x-x-x-x-x--x-x-x-x-x--x-x-x-x-x--x-x-x-x-x--x-x-x-x-x--x-x-x-x-x--x-x-x-x-x--||


[Post-Chorus]

Guitar 2 :

e|-3--3-3-3-3-3--3-3-3-3-3--3-3-3-3-3--3-3-3-3-3--3-3-3-3-3--3-3-3-3-3--3-3-3-3-3--3-3-3-3-3--||
B|-3--3-3-3-3-3--3-3-3-3-3--3-3-3-3-3--3-3-3-3-3--3-3-3-3-3--3-3-3-3-3--3-3-3-3-3--3-3-3-3-3--||
G|-0--0-0-0-0-0--0-0-0-0-2--2-2-2-2-2--2-2-2-2-0--0-0-0-0-0--0-0-0-0-0--0-0-0-0-0--0-0-0-0-0--||
D|-2--2-2-2-2-2--2-2-2-2-0--0-0-0-0-0--0-0-0-0-2--2-2-2-2-2--2-2-2-2-2--2-2-2-2-2--2-2-2-2-2--||x2
A|-3--3-3-3-3-3--3-3-3-3-x--x-x-x-x-x--x-x-x-x-2--2-2-2-2-2--2-2-2-2-2--2-2-2-2-2--2-2-2-2-2--||
E|-x--x-x-x-x-x--x-x-x-x-x--x-x-x-x-x--x-x-x-x-0--0-0-0-0-0--0-0-0-0-0--0-0-0-0-0--0-0-0-0-0--||


[Intro 2]

e|------------------------------------------------------------| 
B|-----8-----8-----8---10/12-----8-----8-----8---10/12--------|
G|-7-9---7-9---7-9---7-------7-9---7-9---7-9---7--------------|
D|------------------------------------------------------------|
A|------------------------------------------------------------|
E|------------------------------------------------------------|
                                                                      x4
e|---7-8---7-8------8----10/12---7-8---7-8------8----10/12----|
B|-8-----8-----8-10---10-------8-----8-----8-10---10----------|
G|------------------------------------------------------------|
D|------------------------------------------------------------|
A|------------------------------------------------------------|
E|------------------------------------------------------------| 

[Verse 2]

(Guitar 1)
     PM PM    PM PM   PM PM     PM PM    PM PM    PM PM    PM PM    PM PM  
e|----------------------------------------------------------------------------------------------|
B|-15------12-----------------------------------------------------------------------------------|
G|---14-14----12-12-14-------12-----------------------------------------------------------------|
D|---------------------14-14----12-12-14-------12-----------------------------------------------|
A|---------------------------------------14-14----12-12-14-------12----------12-14-----------10-|
E|---------------------------------------------------------15-15----12-12/---------10--10-12----|

      PM PM    PM PM   PM PM     PM PM    PM PM    PM PM    PM PM    PM PM
e|-------------------------------------15-------12---------------------------------------------||
B|-15-------12----------------------------15-15----12-12-15------------------------------------||
G|----14-14----12-12-14-------12----------------------------14-14-12---------------------------||
D|----------------------14-14----12-12-------------------------------12-12-14~--12-14~--12-14~-||
A|---------------------------------------------------------------------------------------------||
E|---------------------------------------------------------------------------------------------||
  
  -------A--------||-----B-----||
e|----------------||-----------||
B|----------------||-----------||
G|-------14p12----||-----------||
D|-12-14-------14-||-----------||
A|----------------||-----------||
E|----------------||--2b-------||

(Guitar 2 PM )
e|---------------------------------------------------------------------------|
B|-------------------------------------------------------------12------------|
G|-------12-------12-------12-------12-------12-------12----------14-12------|
D|-12-14----12-14----12-14----12-14----12-14----12-14----12-14----------14---|
A|---------------------------------------------------------------------------|
E|---------------------------------------------------------------------------|

e|-------------------------------------------------------------12------------||
B|----12-15----12-15----12-15----12-15----12-15----12-15----12----15-12------||
G|-14-------14-------14-------14-------14-------14-------14-------------14---||
D|---------------------------------------------------------------------------|| x3
A|---------------------------------------------------------------------------||
E|---------------------------------------------------------------------------||

e|---------------------------------------------------------------------------|
B|---------------------------------------------------------------------------|
G|-------12-------12-------12-------12-------12-------12-------12-------12---|
D|-12-14----12-14----12-14----12-14----12-14----12-14----12-14----12-14------|
A|---------------------------------------------------------------------------|
E|---------------------------------------------------------------------------|

e|---------------------------------------------------------------------------|
B|---------------------------------------------------------------------------|
G|---------------------------------------------------------------------------|
D|-------12-------12-------12-------12-------12------------------------------|
A|-12-14----12-14----12-14----12-14----12-14---------------------------------|
E|-------------------------------------------------------2b------------------|

[Chorus 2]

e|-------------------------------------12-------------------------------------------------------||
B|-15~-12------15~-12------15~-12---------15-12-------------------------------------------------||
G|-------14-12-------14-12-------14-12----------14~-12------14~-12-------14~-------14-12--------||
D|----------------------------------------------------14-12-------14-12------12-14--------14-12-||x3
A|----------------------------------------------------------------------------------------------||
E|----------------------------------------------------------------------------------------------||

e|-------------------------12~----------15b-12-------17b-17-15----19b-17-15---------------------|
B|-15~-12------15~-12----------15-12-----------15-12-----------17-----------17-15~--------------|
G|-------14-12-------14-12-----------14---------------------------------------------------------|
D|----------------------------------------------------------------------------------------------|
A|----------------------------------------------------------------------------------------------|
E|----------------------------------------------------------------------------------------------|

Chords Guitar 2 :

e|-3--3-3-3-3-3--3-3-3-3-3--3-3-3-3-3--3-3-3-3-3--3-3-3-3-3--3-3-3-3-3--3-3-3-3-3--3-3-3-3-3--||
B|-3--3-3-3-3-3--3-3-3-3-3--3-3-3-3-3--3-3-3-3-3--3-3-3-3-3--3-3-3-3-3--3-3-3-3-3--3-3-3-3-3--||
G|-0--0-0-0-0-0--0-0-0-0-2--2-2-2-2-2--2-2-2-2-0--0-0-0-0-0--0-0-0-0-0--0-0-0-0-0--0-0-0-0-0--||
D|-2--2-2-2-2-2--2-2-2-2-0--0-0-0-0-0--0-0-0-0-2--2-2-2-2-2--2-2-2-2-2--2-2-2-2-2--2-2-2-2-2--||x3
A|-3--3-3-3-3-3--3-3-3-3-x--x-x-x-x-x--x-x-x-x-2--2-2-2-2-2--2-2-2-2-2--2-2-2-2-2--2-2-2-2-2--||
E|-x--x-x-x-x-x--x-x-x-x-x--x-x-x-x-x--x-x-x-x-0--0-0-0-0-0--0-0-0-0-0--0-0-0-0-0--0-0-0-0-0--||

e|-3--3-3-3-3-3--3-3-3-3-3--3-3-3-3-3--3-3-3-3-3--3-3-3-3-3--3-3-3-3-3--3-3-3-3-3--3-3-3-3-3--||
B|-3--3-3-3-3-3--3-3-3-3-3--3-3-3-3-3--3-3-3-3-3--3-3-3-3-3--3-3-3-3-3--3-3-3-3-3--3-3-3-3-3--||
G|-0--0-0-0-0-0--0-0-0-0-0--0-0-0-0-0--0-0-0-0-2--2-2-2-2-2--2-2-2-2-2--2-2-2-2-2--2-2-2-2-2--||
D|-2--2-2-2-2-2--2-2-2-2-2--2-2-2-2-2--2-2-2-2-0--0-0-0-0-0--0-0-0-0-0--0-0-0-0-0--0-0-0-0-0--||
A|-3--3-3-3-3-3--3-3-3-3-3--3-3-3-3-3--3-3-3-3-x--x-x-x-x-x--x-x-x-x-x--x-x-x-x-x--x-x-x-x-x--||
E|-x--x-x-x-x-x--x-x-x-x-x--x-x-x-x-x--x-x-x-x-x--x-x-x-x-x--x-x-x-x-x--x-x-x-x-x--x-x-x-x-x--||

[Outro]


e|-3--3-3-3-3-3--3-3-3-3-3--3-3-3-3-3--3-3-3-3-3--3-3-3-3-3--3-3-3-3-3--3-3-3-3-3--3-3-3-3-3--||
B|-3--3-3-3-3-3--3-3-3-3-3--3-3-3-3-3--3-3-3-3-3--3-3-3-3-3--3-3-3-3-3--3-3-3-3-3--3-3-3-3-3--||
G|-0--0-0-0-0-0--0-0-0-0-2--2-2-2-2-2--2-2-2-2-0--0-0-0-0-0--0-0-0-0-0--0-0-0-0-0--0-0-0-0-0--||
D|-2--2-2-2-2-2--2-2-2-2-0--0-0-0-0-0--0-0-0-0-2--2-2-2-2-2--2-2-2-2-2--2-2-2-2-2--2-2-2-2-2--||x4
A|-3--3-3-3-3-3--3-3-3-3-x--x-x-x-x-x--x-x-x-x-2--2-2-2-2-2--2-2-2-2-2--2-2-2-2-2--2-2-2-2-2--||
E|-x--x-x-x-x-x--x-x-x-x-x--x-x-x-x-x--x-x-x-x-0--0-0-0-0-0--0-0-0-0-0--0-0-0-0-0--0-0-0-0-0--||            
Submit corrections


        Mer lessons Hard to play? Try these video lessons and learn fast Mer lessons
        
↑ Back to top | Tablatures and chords for acoustic guitar and electric guitar, ukulele, drums are parodies/interpretations of the original songs. You may use it for private study, scholarship, research or language learning purposes only