Home » H » Hymnal »

Hymnal - Crown Him With Many Crowns Tabs

Artists:  A B C D E F G H I J K L M N O P Q R S T U V W X Y Z # 

Crown Him With Many Crowns Tabs

(ver. 1) Click to play this song!
Hymnal
Capo 2

Tuning:

e|-----------------------------------------|
B|--0---------------------------------0----|
G|----0-------0---------2h0-------0---0----|
D|------0-----0h2--2h0-----2h0------0------|
A|--------0---3---------------0h2-----2h3--|
E|--3-------------------3------------------|

e|------------------------------------------------------------------|
B|--0--------0--------0--0---------3--------1--------------3--------|
G|----0--------0------0----0---------0--------0----------0---0------|
D|------0--------2----0h2----2-0-------0--------0------4-------4----|
A|--------0--------2--3------------------0--3-----3--5-----------5--|
E|--3--------0---------------------3--------------------------------|

  Crown     many     crowns        lamb     upon     thrown
e|---------------------------------------------------------2h3h2h0------------------|
B|--0-----0-------------3--------------------------------3---------3----------------|
G|----0-----0---------2-------0--------0---------0----- 2-----------2---------------|
D|------0-----2-----2-------4--------4---4-----0------0-----------------------------|
A|--------------2-0-------5--------5---------4--------------------------------------|
E|--3----20--------------------------------5----------------------------------------|

   How   heav'    anthem   drown                        own
e|---3---------------3-------0-----0------------3----------3------3----3------3--|
B|---3-3---------3---3---3-----3---3-3----------3----------3------3----3------3--|
G|---0---0---------0-0-----0----0--2---2--------2----------0------0----2------0--|
D|---0-----0---0-----0h2-----------2-----2---2--0----------0------2----0------0--|
A|---2-------2-------3-------------0-------0----0----------2------3----0------2--|
E|---3-----------------------------------------------------3-----------2------3--|

    Awake           sing           him           thee     hail   as  match   king

e|---3----3--------3--------------------------------------------------------------|
B|---3----3--------3--------------------------------------------------------------|
G|---0----2--------0--------------------------------------------------------------|
D|---2----0--------0--------------------------------------------------------------|
A|---3----0--------2--------------------------------------------------------------|
E|--------2--------3--------------------------------------------------------------|

    all  -ter-    ty            
Submit corrections

↑ Back to top | Tablatures and chords for acoustic guitar and electric guitar, ukulele, drums are parodies/interpretations of the original songs. You may use it for private study, scholarship, research or language learning purposes only