Home » H » Hymnal »

Hymnal - Come Thou Fount Tabs

Artists:  A B C D E F G H I J K L M N O P Q R S T U V W X Y Z # 

Come Thou Fount Tabs

(ver. 1) Click to play this song!
Hymnal
E|---0---|
B|---0---|
G|---2---|
D|---2---|
A|---2---|
E|---0---|

[Chord Options when playing with cut capo at fret 2]
     E   E   A   A   B   B   C#m   C#m
E|---0---0---0---0---0---0---0-----0-----|
B|---0---0---0---0---0---0---0-----0-----|
G|---4---9---2---6---8---4---6-----9-----|
D|---2---9---2---2---2---4---2-----2-----|
A|---2---7---4---7---9---2---4-----11----|
E|---0---0---5---5---7---0---0-----9-----|

[Tab - Verse]
E|--------0--0--------0--0-------------------------0----|
B|--------0--0--------0--0-------------------------0----|
G|--------4--4-----4--4--4-------4--4h6--4---------4----|
D|--6--4--2--2--6-----4--4--4h6-------------4h6p4--2----|
A|--------2--2--------2--2-------------------------2----|
E|--------0--0--------0--0-------------------------0----|

E|--------0--0--------0--0-------------------------0----|
B|--------0--0--------0--0-------------------------0----|
G|--------4--4-----4--4--4-------4--4h6--4---------4----|
D|--6--4--2--2--6-----4--4--4h6-------------4h6p4--2----|
A|--------2--2--------2--2-------------------------2----|
E|--------0--0--------0--0-------------------------0----|

E|-----------0----0----0--------------|
B|-----------0----0----0--------------|
G|--4--6/8-8/9----8----6\4/6\4--------|
D|-----------2----2----2--------6-----|
A|-----------11---9----7p2------------|
E|-----------9----7----5p0------------|

E|-----------0----0----0------0-------|
B|-----------0----0----0------0-------|
G|--4--6/8-8/9----8----6\4----9-------|
D|-----------2----2----2------2-------|
A|-----------11---9----7p2----7-------|
E|-----------9----7----5p0----5-------|

E|--------0--0--------0--0-------------------------0----|
B|--------0--0--------0--0-------------------------0----|
G|--------4--4-----4--4--4-------4--4h6--4---------4----|
D|--6--4--2--2--6-----4--4--4h6-------------4h6p4--2----|
A|--------2--2--------2--2-------------------------2----|
E|--------0--0--------0--0-------------------------0----|

[Chords]
          E              B
Come Thou Fount of every blessing
        A        B        E
Tune my heart to sing Thy grace;
           E            B
Streams of mercy, never ceasing,
         A        B       E
Call for songs of loudest praise
         C#m             B
Teach me some melodious sonnet,
        C#m              A
Sung by flaming tongues above.
           E                 B
Praise the mount! I'm fixed upon it,
         A     B       E
Mount of Thy redeeming love.            
Submit corrections

↑ Back to top | Tablatures and chords for acoustic guitar and electric guitar, ukulele, drums are parodies/interpretations of the original songs. You may use it for private study, scholarship, research or language learning purposes only