Home » H » Humble Pie »

Humble Pie - Thirty Days In The Hole Tabs

Artists:  A B C D E F G H I J K L M N O P Q R S T U V W X Y Z # 

Thirty Days In The Hole Tabs

(ver. 1) Click to play this song!
Humble Pie
 Rating:
4.3/5 (20 votes)
                 Intro
  Q=120
  N.C.
 4/4
  Gtr I (El. Gtr. w/ dist. & tremolo effect)
  W          Wx6
|----------|--------|
|----------|--------|
|----------|--------|
|----------|--------|
|----------|--------|
|----------|--------|


                           E5
  Gtr I
  W          H    Q  E E   H.      +E  E   H.      +E  E
|----------|-------------|---------------|----------------|
|----------|-------------|---------------|----------------|
|----------|-------------|-9-------(9)---|-9-------(9)----|
|----------|-------------|-9-------(9)---|-9-------(9)----|
|----------|-----------5s|=7-------(7)-5s|=7-------(7)----|
|----------|-------------|---------------|----------------|
|
| Gtr II (El. Gtr. w/ dist.)
| W          W             H.      +E  E   H.       E  E
|----------|-------------|---------------|----------------|
|----------|-------------|---------------|----------------|
|----------|-------------|-9-------(9)---|-9--------x-----|
|----------|-------------|-9-------(9)---|-9--------x-----|
|----------|-------------|-7-------(7)---|-7--------x-----|
|----------|-------------|---------------|----------------|


  A/C#         E/B                     A/C#         E/B
  Gtrs I, II
   Q.    e E E Q    +Q   E e e e E E    Q.    e E E Q    +Q   E e e e Q
|-----------------|------------------|-----------------|------------------||
|-10----10-----9--|-(9)----9---9-----|-10----10-----9--|-(9)----9---9-----||
|--9-----9-----9--|-(9)----9---9-----|--9-----9-----9--|-(9)----9---9-----||
|-11----11---9-9--|-(9)----9---9-----|-11----11---9-9--|-(9)----9---9-----||
|-----------------|----------------7-|-----------------|------------------||
|-----------------|------------------|-----------------|------------------||


   1st - 3rd Verses
    $
    A/C#         E/B                    A/C#         E/B
     Q.    e E E Q    +Q   E e e e Q     Q.    e E E Q    +Q   E e e e E E
||------------------|-----------------|-----------------|------------------|
||o-10----10-----9--|-(9)----9---9----|-10----10-----9--|-(9)----9---9-----|
||---9-----9-----9--|-(9)----9---9----|--9-----9-----9--|-(9)----9---9-----|
||--11----11---9-9--|-(9)----9---9----|-11----11-----9--|-(9)----9---9-----|
||o-----------------|-----------------|------------7----|----------------7-|
||------------------|-----------------|-----------------|------------------|


  A/C#     E/B         A/C#           E/B
   E.  S E E +Q.   E    E.  S  E  e E Q.
|--------------------|---------------------|
|-10--10---9-(9)-----|-10--10-10-10---9----|
|--9---9---9-(9)-----|--9---9--9--9---9----|
|-11--11---9-(9)-----|-11--11-11-11---9----|
|------------------7-|---------------------|
|--------------------|---------------------|


      A/C#        E/B         N.C.
  E E  E E E  E E E   +Q.   E E E E E
|-------------------|---------------0--|
|-----10----------9-|-(9)-----------0--|
|------9----------9-|-(9)-----0h1------|
|-----11-----11---9-|-(9)---------2----|
|---7------7--7-----|------------------|
|-------------------|------------------|


  A/C#         E/B                    A/C#         E/B
   Q.    e E E Q    +Q.   e e e E E    Q.    e E E Q    +Q.   e e e E E
|-----------------|-----------------|-----------------|------------------|
|-10----10-----9--|-(9)---9---9-----|-10----10-----9--|-(9)---9---9------|
|--9-----9-----9--|-(9)---9---9-----|--9-----9-----9--|-(9)---9---9------|
|-11----11-----9--|-(9)---9---9-----|-11----11-----9--|-(9)---9---9------|
|------------7----|---------------7-|------------7----|---------------7--|
|-----------------|-----------------|-----------------|------------------|


                                                                      To Coda
  A/C#     E/B         A/C#           E/B      D       E/B    A
   E.  S E E +Q.   E    E.  S  E  e E Q.     E E e E E e Q    H    +E  E E E
|--------------------|---------------------|----------------|-5----(5)-5-5-5--||
|-10--10---9-(9)-----|-10--10-10-10---9----|-----7-----7----|-5----(5)-5-5-5--||
|--9---9---9-(9)-----|--9---9--9--9---9----|-----7-----7----|-6----(6)-6-6-6--||
|-11--11---9-(9)-----|-11--11-11-11---9----|-----7-----7----|-7----(7)-7-7-7--||
|------------------7-|---------------------|---5-----5------|-----------------||
|--------------------|---------------------|----------------|-----------------||


 Chorus
  E/B                A                  E/B
  Q.   E +E  E E E   Q.   E +E  E E E   Q.   E +E  E E E
|------------------|-5----5-(5)-5-5---|------------------|
|-9----9-(9)-9-9---|-5----5-(5)-5-5---|-9----9-(9)-9-9---|
|-9----9-(9)-9-9---|-6----6-(6)-6-6---|-9----9-(9)-9-9---|
|-9----9-(9)-9-9---|-7----7-(7)-7-7---|-9----9-(9)-9-9---|
|----------------7-|----------------7-|----------------7-|
|------------------|------------------|------------------|


                                       1.
  A                  E/B                A                  E/B       D#/Bb
  Q.   E +E  E E E   Q.   E +E  E E E   Q.   E +E  E E E   H.      E E
|-5----5-(5)-5-5---|------------------|-5----5-(5)-5-5---|---------------|
|-5----5-(5)-5-5---|-9----9-(9)-9-9---|-5----5-(5)-5-5---|-9---------8s==|
|-6----6-(6)-6-6---|-9----9-(9)-9-9---|-6----6-(6)-6-6---|-9---------8s==|
|-7----7-(7)-7-7---|-9----9-(9)-9-9---|-7----7-(7)-7-7---|-9---------8s==|
|----------------7-|----------------7-|----------------7-|---------------|
|------------------|------------------|------------------|---------------|


                    2.
                     A
  Gtr I
  H     E.  S Q      Q.   E +E  E E E
|------12--12-----||-5----5-(5)-5-5---|
|-9----12--12----o||-5----5-(5)-5-5---|
|-9---------------||-6----6-(6)-6-6---|
|-9---------------||-7----7-(7)-7-7---|
|----------------o||----------------7-|
|-----------------||------------------|
|
|                                     G
| W                  W
|-----------------||------------------|
|----------------o||------------------|
|-----------------||------------------|
|-----------------||------------------|
|----------------o||------------------|
|-----------------||------------------|


   Interlude
        E/Ab    B/F# D/F#   A/E D/FA/E
    E E  E E  E  e E  e   E  Q   E  Q   E  E
||----------------------|---------------------|
||o-----17---17-16---15-|---14--15-14--14\----|
||------16---16-16---14-|---14--14-14--14\----|
||------18---18-16---16-|---14--16-14--14\----|
||o---------------------|---------------------|
||--7-------------------|---------------------|
|
|tr II
|   Q    E E  E  e E  e   E  Q   E  Q   Q
||----------------------|---------------------|
||o------5----5--4----3-|----2---3--2---------|
||-------4----4--4----2-|----2---2--2---------|
||-------6----6--4----4-|----2---4--2---------|
||o---------------------|---------------------|
||----------------------|---------------------|


                         1.,2.,3.                4.
                                                      D.S. al Coda
       E5                                         E
  E    e E E E. S E S S   E    e E E Q  E   E  4x E    e E E Q  Q
|-----------------------|----------------------||------------------||
|-----------------------|------9--------------o||------9-----------||
|------9-----9----------|------9-----9--9------||------9-----9-----||
|------9-----9----7-5h6-|------9-----9--9------||------9-----9-----||
|------7-----7----------|-7----------7--7-/11-o||-7----------7-----||
|-0--------0----0-------|----------0-----------||----------0-------||
|
| E    e Q   H            E    e Q   H         4x E    e Q   H
|------0----------------|------0---------------||------0-----------||
|-----------------------|---------------------o||------------------||
|-0tr1------------------|-0tr1-----------------||-0tr1-------------||
|-----------------------|----------------------||------------------||
|-----------------------|---------------------o||------------------||
|-----------------------|----------------------||------------------||


   Out-Chorus
    &
    E/B                A
    Gtrs I, II
    Q.   E +E  E E E   Q.   E +E  E E E
||-------------------|-5----5-(5)-5-5---|
||o-9----9-(9)-9-9---|-5----5-(5)-5-5---|
||--9----9-(9)-9-9---|-6----6-(6)-6-6---|
||--9----9-(9)-9-9---|-7----7-(7)-7-7---|
||o----------------7-|----------------7-|
||-------------------|------------------|


  E/B                A
  Q.   E +E  E E E   Q.   E +E  E E E  3x
|------------------|-5----5-(5)-5-5----||
|-9----9-(9)-9-9---|-5----5-(5)-5-5---o||
|-9----9-(9)-9-9---|-6----6-(6)-6-6----||
|-9----9-(9)-9-9---|-7----7-(7)-7-7----||
|----------------7-|----------------7-o||
|------------------|-------------------||            
Submit corrections

↑ Back to top | Tablatures and chords for acoustic guitar and electric guitar, ukulele, drums are parodies/interpretations of the original songs. You may use it for private study, scholarship, research or language learning purposes only