Home » H » Hujan »

Hujan - Aku Skandal Live Chords

Artists:  A B C D E F G H I J K L M N O P Q R S T U V W X Y Z # 

Aku Skandal Live Chords

(ver. 1) Click to play this song!
Hujan
 Rating:
4.3/5 (10 votes)
                [Intro]
 
e|---------------------------------------------------------------------------|
B|---------------------------------------------------------------------------|
G|---------------------------------------------------------------------------|
D|---------------------------------------------------------------------------|
A|---------------------------------------------------------------------------|
E|--3-------6-5-3------------------------------------------------------------|
 
(part octave chord masuk)
e|---------------------------------------------------------------------------|
B|---------------------------------------------------------------------------|
G|-5--4--7--11---------------------------------------------------------------|
D|---------------------------------------------------------------------------|
A|-3--2--5--9----------------------------------------------------------------|
E|---------------------------------------------------------------------------|
 
 
[Verse 1st]
 
e|---------------------------------------------------------------------------|
B|---------------------------------------------------------------------------|
G|-11---12--12--14--14--16--16--14--14--11-----------------------------------|   (2X)
D|---------------------------------------------------------------------------|
A|-9----10--10--12--12--14--14--12--12--9------------------------------------|
E|---------------------------------------------------------------------------|
 
e|-------------------------------12-12-17h12---------------------------------|
B|-------------------------13-13------------13----------------4-4------------|
G|-------------------14-14--------------------------------5-5-----5-5--------|
D|-------------14-14----------------------------------4-4-------------4-4----|
A|-------15-15------------------------------------5-5---------------------5--|
E|-17-17---------------------------------------------------------------------|
 
[Pre-Chorus]
 
G
 
[Chorus]
 
Cmaj7 Am7 D7 G (2X)
 
e|---------------------------------------------------------------------------|
B|---------------------------------------------------------------------------|
G|-5-5-5-5-8-8-8-8-7-7-7-7-14-14-13-13---------------------------------------|
D|---------------------------------------------------------------------------|
A|-3-3-3-3-6-6-6-6-5-5-5-5-12-12-11-11---------------------------------------|
E|---------------------------------------------------------------------------|
 
e|-------------------------------12-12-17r12---------------------------------|
B|-------------------------13-13------------13----------------4-4------------|
G|-------------------14-14--------------------------------5-5-----5-5--------|
D|-------------14-14----------------------------------4-4-------------4-4----|
A|-------15-15------------------------------------5-5---------------------5--|
E|-17-17---------------------------------------------------------------------|
 
[Short break]
 
G
 
 
[Verse 2nd]
 
e|---------------------------------------------------------------------------|
B|---------------------------------------------------------------------------|
G|-11---12--12--14--14--16--16--14--14--11-----------------------------------|   (2X)
D|---------------------------------------------------------------------------|
A|-9----10--10--12--12--14--14--12--12--9------------------------------------|
E|---------------------------------------------------------------------------|
 
e|-------------------------------12-12-17h12---------------------------------|
B|-------------------------13-13------------13----------------4-4------------|
G|-------------------14-14--------------------------------5-5-----5-5--------|
D|-------------14-14----------------------------------4-4-------------4-4----|
A|-------15-15------------------------------------5-5---------------------5--|
E|-17-17---------------------------------------------------------------------|
 
[Pre-Chorus]
 
G
 
[Chorus]
 
Cmaj7 Am7 D7 G (2X)
 
e|---------------------------------------------------------------------------|
B|---------------------------------------------------------------------------|
G|-5-5-5-5-8-8-8-8-7-7-7-7-14-14-13-13---------------------------------------|
D|---------------------------------------------------------------------------|
A|-3-3-3-3-6-6-6-6-5-5-5-5-12-12-11-11---------------------------------------|
E|---------------------------------------------------------------------------|
 
e|-------------------------------12-12-17r12---------------------------------|
B|-------------------------13-13------------13----------------4-4------------|
G|-------------------14-14--------------------------------5-5-----5-5--------|
D|-------------14-14----------------------------------4-4-------------4-4----|
A|-------15-15------------------------------------5-5---------------------5--|
E|-17-17---------------------------------------------------------------------|
 
 
[Bridge]
 
e|---------------------------------------------------------------------------|
B|---------------------------------------------------------------------------|
G|---------7-6-5-5-6-7--7--4-3-2-----------5---------------------------------|
D|-5--7--9--------------5---5-4-3-2-3-4-5--3---------------------------------|
A|---------------------------------------------------------------------------|
E|---------------------------------------------------------------------------|
 
 
[Solo]
 
e|-----------------------------------------------------12-15h12------------------------------------|
B|-------15-----------------------------------12----12----------b17-15r13r12-13-15-12--------------|
G|---b16----16-14r11-11-12-14-11-----------12----12-----------------------------------12----12-----|
D|-------------------------------12-----14-----------------------------------------------14--------|
A|----------------------------------14-------------------------------------------------------------|
E|-------------------------------------------------------------------------------------------------|
 
e|-----9-----10-----9----------------------------------------------------15----19r15----|Ulang      |-b19-|
B|-b12---b12----b12---b12-12-10h8h7-8-10------------------------12-15-17----17-------17-|banyak kali|-----|
G|---------------------------------------7---------------7-9-14-------------------------------------------|
D|-----------------------------------------7-6-------7-9--------------------------------------------------|
A|---------------------------------------------7--/7------------------------------------------------------|
E|----------------------------------------------\7--------------------------------------------------------|
 
 
[Chorus]
 
Cmaj7 Am7 D7 G (2X)
 
e|---------------------------------------------------------------------------|
B|---------------------------------------------------------------------------|
G|-5-5-5-5-8-8-8-8-7-7-7-7-14-14-13-13---------------------------------------|
D|---------------------------------------------------------------------------|
A|-3-3-3-3-6-6-6-6-5-5-5-5-12-12-11-11---------------------------------------|
E|---------------------------------------------------------------------------|
 
e|-------------------------------12-12-17r12---------------------------------|
B|-------------------------13-13------------13----------------4-4------------|
G|-------------------14-14--------------------------------5-5-----5-5--------|
D|-------------14-14----------------------------------4-4-------------4-4----|
A|-------15-15------------------------------------5-5---------------------5--|
E|-17-17---------------------------------------------------------------------|
 
[Second breakdown]
 
e|---------------------------------------------------------------------------|
B|---------------------------------------------------------------------------|
G|------------------------------------------------9-11-12-12-----------------|
D|-10-----------10-11-12-12r10-------------9-10-12---------------------------|
A|-----10-11-12----------------12r10-10-12-----------------------------------|
E|---------------------------------------------------------------------------|
 
e|---------------------------------------------------------------------------|
B|---------------------------------------------------------------------------|
G|-------------------12--14r12-----------------------------------------------|
D|----------12-13-14-----------14r12-----------------------------------------|
A|-10-12-14--------------------------14r12-----------------------------------|
E|---------------------------------------------------------------------------|
 
 
[OUTRO]
 
e|---------------------------------------------------------------------------|
B|-------5--5--5-------------------------------------------------------------|
G|-------7--7--7--7----------------------------------------------------------|
D|-5-7-9----------5----------------------------------------------------------|
A|---------------------------------------------------------------------------|
E|---------------------------------------------------------------------------|
            
Submit corrections

↑ Back to top | Tablatures and chords for acoustic guitar and electric guitar, ukulele, drums are parodies/interpretations of the original songs. You may use it for private study, scholarship, research or language learning purposes only