Home » H » Hugh Laurie »

Hugh Laurie - Too Long Johnny Tabs

Artists:  A B C D E F G H I J K L M N O P Q R S T U V W X Y Z # 

Too Long Johnny Tabs

(ver. 1) Click to play this song!
Hugh Laurie
Intro:

e|---------------------------------------------------------------------------|
B|------------------/12------------------------/12-/12-----------------------|
G|---2/3\2-0----0---/12--------0-2/3\2-0---0---/12-/12-----------------------|
D|------------2--------------------------2-----------------------------------|
A|---------------------------------------------------------------------------|
E|---------------------------------------------------------------------------|

e|---------------------------------------------------------------------------|
B|------------------/12------------------------/12-/12-----------------------|
G|-0-2/3\2-0----0---/12--------0-2/3\2-0---0---/12-/12-----------------------|
D|------------2--------------------------2-----------------------------------|
A|---------------------------------------------------------------------------|
E|---------------------------------------------------------------------------|

e|---------------------------------------------------------------------------------------------------|
B|---------------------------------------------------------7---------------/7-/7---------------------|
G|-0-/7---7\5-0-5/7----0-/5---5\3-0-3--0-0-0-0----------/7------7-7\5\3-0--/7-/7---------------------|
D|-----------------------------------------------/3--0-----------------------------0-3/5-0-/3-0------|
A|-----------------------------------------------/3--0-----------------------------0-3/5-0-/3-0------|
E|---------------------------------------------------------------------------------------------------|

Too long, Johnny                                           Too long, Johnny

e|-------------------------------------------------------------------------------------------------------------|
B|-----------------------/12-/12-------------/12--------------------------------/12-/12----------------/12-/12-|
G|-----------------------/12-/12-------------/12--------------------------------/12-/12----------------/12-/12-|
D|-0-/5-----0-/5-0-/3-0-----------0-0-/3--0----------0-/5----0-/5-----/3-/3--0------------0-/5-0-/3-0----------|
A|-0-/5-----0-/5-0-/3-0-----------0-0-/3--0----------0-/5----0-/5-----/3-/3--0------------0-/5-0-/3-0----------|
E|-------------------------------------------------------------------------------------------------------------|

        Make it shorter, Johnny

e|-------------------------------------------------------------------------------------------|
B|----------------------------------------------/12-/12-----------------/12-/12--------------|
G|-0-/7-----0-/7-----0-/5--5--5\0---------------/12-/12-----------------/12-/12--------------|
D|-0-/7-----0-/7-----0-/5--5--5\0--0-/5-0-/3-0-------------0-/5-0-/3-0----------------0-3-0--|
A|---------------------------------0-/5-0-/3-0-------------0-/5-0-/3-0----------------0-3-0--|
E|-------------------------------------------------------------------------------------------|

That's the perfect lenght now, Johnny

e|------------------------------------------------------------------------------------------------------------|
B|-------------------/12-/12----------/12-/12-------------------------------------/12-/12-------------/12-/12-|
G|-------------------/12-/12----------/12-/12-------------------------------------/12-/12-------------/12-/12-|
D|-0-/5----0-/3-3-0-----------/5-3-0--------------0-/5-----0-/5----5--/3-/3-0--------------/5-0-/3-0----------|
A|-0-/5----0-/3-3-0-----------/5-3-0--------------0-/5-----0-/5----5--/3-/3-0--------------/5-0-/3-0----------|
E|------------------------------------------------------------------------------------------------------------|

Take a little of the width, Johnny

e|-------------------------------------------------------------------------------------------|
B|----------------------------------------------/12-/12-----------------/12-/12--------------|
G|-0-/7-----0-/7-----0-/5--5--5\0---------------/12-/12-----------------/12-/12--------------|
D|-0-/7-----0-/7-----0-/5--5--5\0--0-/5-0-/3-0-------------0-/5-0-/3-0----------------0-3-0--|
A|---------------------------------0-/5-0-/3-0-------------0-/5-0-/3-0----------------0-3-0--|
E|-------------------------------------------------------------------------------------------|

Oh, now that's too much, Johnny

e|------------------------------------------------------------------------------------------------------------|
B|-------------------/12-/12----------/12-/12-------------------------------------/12-/12-------------/12-/12-|
G|-------------------/12-/12----------/12-/12-------------------------------------/12-/12-------------/12-/12-|
D|-0-/5----0-/3-3-0-----------/5-3-0--------------0-/5-----0-/5----5--/3-/3-0----------------0-/3-0-----------|
A|-0-/5----0-/3-3-0-----------/5-3-0--------------0-/5-----0-/5----5--/3-/3-0----------------0-/3-0-----------|
E|------------------------------------------------------------------------------------------------------------|

Looks like you're going to have to throw it away, Johnny

e|-------------------------------------------------------------------------------------------------|
B|----------------------------------------------/12-/12-----------------/12-/12--------------------|
G|-0-/7-----0-/7-----0-/5--5--5\0---------------/12-/12-----------------/12-/12--------------------|
D|-0-/7-----0-/7-----0-/5--5--5\0--0-/5-0-/3-0-------------0-/5-0-/3-0----------------0-/5-0-/3-0--|
A|---------------------------------0-/5-0-/3-0-------------0-/5-0-/3-0----------------0-/5-0-/3-0--|
E|-------------------------------------------------------------------------------------------------|            
Submit corrections

↑ Back to top | Tablatures and chords for acoustic guitar and electric guitar, ukulele, drums are parodies/interpretations of the original songs. You may use it for private study, scholarship, research or language learning purposes only