Home » H » Hot Water Music »

Hot Water Music - North And About Tabs

Artists:  A B C D E F G H I J K L M N O P Q R S T U V W X Y Z # 

North And About Tabs

(ver. 1) Click to play this song!
Hot Water Music
 Rating:
4.3/5 (9 votes)
                Tuning: Standard (EADGBe)

Intro/Verse [0.00 - 0.33]
e|---------------------------------------------------------------------------|
B|---------------------------------------------------------------------------|
G|----4-4-4----4-4-4-4----4-4-4-4--------------------------------------------|
D|-55-5-5-5-55-5-5-5-5-55-5-5-5-5-55-----------------------------------------|
A|-55-5-5-5-55-5-5-5-5-55-5-5-5-5-55-----------------------------------------|
E|-33-3-3-3-33-3-3-3-3-33-3-3-3-3-33-----------------------------------------|

Riff played over verse
e|---333---333---333---333---------------------------------------------------|
B|-3-----3-----3-----5-------------------------------------------------------|
G|---------------------------------------------------------------------------|
D|---------------------------------------------------------------------------|
A|---------------------------------------------------------------------------|
E|---------------------------------------------------------------------------|

Bass Intro/Verse
G|---------------------------------------------------------------------------|
D|---------------------------------------------------------------------------|
A|---------------------------------------------------------------------------|
E|-33-0-333-0-333-0333-0-5555------------------------------------------------|



Chorus [0.33 - 0.50]
e|---------------------------------------------------------------------------|
B|---------------------------------------------------------------------------|
G|-7-7-7-7-7-7-7-7-4-4-4-4---------------------------------------------------|
D|-7-7-7-7-7-7-7-7-4-4-4-4-5-5-5-5-------------------------------------------|
A|-5-5-5-5-4-4-4-4-2-2-2-2-5-5-5-5-------------------------------------------|
E|-------------------------3-3-3-3-------------------------------------------|

Chorus Lead
e|---------------------------------------------------------------------------|
B|-78787878787-------------78787878787-888-----------------------------------|
G|------------777------------------------------------------------------------|
D|---------------------------------------------------------------------------|
A|---------------------------------------------------------------------------|
E|---------------------------------------------------------------------------|
Play this 3 times          End on this

Bass Chorus
G|---------------------------------------------------------------------------|
D|----------------------------------------------------------5-5p4------------|
A|-5-5-5-5-4-4-4-4-2-2-2-2-----2-4-5-5-5-5-4-4-4-4-2-4-5----------5----------|
E|-------------------------3-3---------------------------3-------------------|




Verse 2 [0.50 - 1.14]
e|---------------------------------------------------------------------------|
B|---------------------------------------------------------------------------|
G|----4-4-4----4-4-4-4----4-4-4-4--------------------------------------------|
D|-55-5-5-5-55-5-5-5-5-55-5-5-5-5-55-----------------------------------------|
A|-55-5-5-5-55-5-5-5-5-55-5-5-5-5-55-----------------------------------------|
E|-33-3-3-3-33-3-3-3-3-33-3-3-3-3-33-----------------------------------------|

Riff played over verse
e|---333---333---333---333---------------------------------------------------|
B|-3-----3-----3-----5-------------------------------------------------------|
G|---------------------------------------------------------------------------|
D|---------------------------------------------------------------------------|
A|---------------------------------------------------------------------------|
E|---------------------------------------------------------------------------|

Bass Verse 2 [1.07 - 1.14]
G|---------------------------------------------------------------------------|
D|-55-00-5555-00-5555-00-55555-00-5555-7777----------------------------------|
A|---------------------------------------------------------------------------|
E|---------------------------------------------------------------------------|




Chorus [1.15 - 1.31]
e|---------------------------------------------------------------------------|
B|---------------------------------------------------------------------------|
G|-7-7-7-7-7-7-7-7-4-4-4-4---------------------------------------------------|
D|-7-7-7-7-7-7-7-7-4-4-4-4-5-5-5-5-------------------------------------------|
A|-5-5-5-5-4-4-4-4-2-2-2-2-5-5-5-5-------------------------------------------|
E|-------------------------3-3-3-3-------------------------------------------|

Chorus Lead
e|---------------------------------------------------------------------------|
B|-78787878787-------------78787878787-888-----------------------------------|
G|------------777------------------------------------------------------------|
D|---------------------------------------------------------------------------|
A|---------------------------------------------------------------------------|
E|---------------------------------------------------------------------------|
Play this 3 times          End on this

Bass Chorus
G|---------------------------------------------------------------------------|
D|----------------------------------------------------------5-5p4------------|
A|-5-5-5-5-4-4-4-4-2-2-2-2-----2-4-5-5-5-5-4-4-4-4-2-4-5----------5----------|
E|-------------------------3-3---------------------------3-------------------|




Bridge [1.32 - 2.12]
e|---------------------------------------------------------------------------|
B|-78787878787---------------------------------------------------------------|
G|------------777------------------------------------------------------------|
D|---------------------------------------------------------------------------|
A|---------------------------------------------------------------------------|
E|---------------------------------------------------------------------------|

Bass Bridge [1.40 - 2.12]
G|---------------------------------------------------------------------------|
D|-4-4-45-45-4---4-5-5/7-----------------------------------------------------|
A|-------------5-------------------------------------------------------------|
E|---------------------------------------------------------------------------|




Post-Bridge [2.13 -2.45]
e|---------------------------------------------------------------------------|
B|---------------------------------------------------------------------------|
G|-2222-4444-6666-4444-------------------------------------------------------|
D|-2222-4444-6666-4444--2-2-222-2-2-222-2-2-222-2-2-222----------------------|
A|-0000-2222-4444-2222--2-2-222-2-2-222-2-2-222-2-2-222----------------------|
E|----------------------0-0-000-0-0-000-0-0-000-0-0-000----------------------|

Bass Post-Bridge
G|---------------------------------------------------------------------------|
D|---------------------------------------------------------------------------|
A|-0000-2222-4444-2222-------------------------------------------------------|
E|----------------------0000000000000000000000000000000----------------------|

Riff over the Bridge
e|---------------------------------------------------------------------------|
B|---------------------------------------------------------------------------|
G|-9-9-9999-10-9-9999-10-9-9999-7-9999---------------------------------------|
D|-x-x-xxxx--x-x-xxxx--x-x-xxxx-x-xxxx---------------------------------------|
A|-7-7-7777--8-7-7777--8-7-7777-5-7777---------------------------------------|
E|---------------------------------------------------------------------------|




Outro [2.45 -3.26]
e|---------------------------------------------------------------------------|
B|-----------7-7-8-7------------------------------7/8-8\7--------------------|
G|-777777777------------77774444----------7777777--------8\7-----------------|
D|------------------------------77775555-------------------------------------|
A|---------------------------------------------------------------------------|
E|---------------------------------------------------------------------------|
Play this  6 times      End on this

Bass Outro
G|---------------------------------------------------------------------------|
D|----------------------------------------------------------5-5p4------------|
A|-5-5-5-5-4-4-4-4-2-2-2-2-----2-4-5-5-5-5-4-4-4-4-2-4-5----------5----------|
E|-------------------------3-3---------------------------3-------------------|
            
Submit corrections

↑ Back to top | Tablatures and chords for acoustic guitar and electric guitar, ukulele, drums are parodies/interpretations of the original songs. You may use it for private study, scholarship, research or language learning purposes only