» » »

Hot Hot Heat - The Rancor Tabs

Artists:  A B C D E F G H I J K L M N O P Q R S T U V W X Y Z # 

The Rancor Tabs

(ver. 1) Click to play this song!
Hot Hot Heat
 Rating:
3.1/5 (27 votes)

 The Rancor  lessons Tabs too difficult? Try these video lessons and learn fast
 
                Tuning: Standard

e|--------------------------------------------------|
B|--------------------------------------------------|
G|--------------------------------------------------|
D|2--------5---------9--------12--------------------|
A|2--------5---------9--------12--------------------|
E|0--------3---------7--------10--------------------|

PM individual notes
e|---------------------------------------------------------------------------|
B|---------------------------------------------------------------------------|
G|---------------------------------------------------------------------------|
D|9-------9-----999-7-------7-----777-4-------4-----444-7-------7-----777----|
A|9-------9-----999-5-------5-----555-4-------4-----444-7-------7-----777----|
E|7-7-7-7-7-7-7-777-5-5-5-5-5-5-5-555-2-2-2-2-2-2-2-222-5-5-5-5-5-5-5-555----|

e|---------------------------------------------------------------------------|
B|---------------------------------------------------------------------------|
G|7-----7-----7-----7-----11-----11-----11-----11----------------------------|
D|--9-9---9-9---9-9---9-9----9-9----9-9----9-9----9-9------------------------|
A|---------------------------------------------------------------------------|
E|---------------------------------------------------------------------------|

e|---------------------------------------------------------------------------|
B|---------------------------------------------------------------------------|
G|6-----6-----6-----6-----11-----12-----11-----12-11-9-----------------------|
D|--7-7---7-7---7-7---7-7----9-9----9-9----9-9-------------------------------|
A|---------------------------------------------------------------------------|
E|---------------------------------------------------------------------------|            
Submit corrections


        The Rancor  lessons Hard to play? Try these video lessons and learn fast The Rancor  lessons
        
↑ Back to top | Tablatures and chords for acoustic guitar and electric guitar, ukulele, drums are parodies/interpretations of the original songs. You may use it for private study, scholarship, research or language learning purposes only