Home » H » Hot Hot Heat »

Hot Hot Heat - Magnitude Bass

Artists:  A B C D E F G H I J K L M N O P Q R S T U V W X Y Z # 

Magnitude Bass

(ver. 1) Click to play this song!
Hot Hot Heat
[Intro]
 
G|-----------------|-------------------------|
D|-----------------|-------------------------|
A|-----------------|-----------------2-2-5-2-|
E|-1-1-1-1-3-3-3-3-|-1-1-1-1-3-3-5-5---------|
 
 
[Verse] Tossed, tossed out yesterday, that's okay ...
 
G|---------------------------------------7-7-|
D|-------------------------------------7-----|
A|-3-3---3-3-7-7---7-10\-5-5---5---5-5-------|
E|-----3---------7-----------5---5-----------|
 
G|-------------------------------------------------|
D|-5-5-------5-5-----------------------------------|
A|-----5---5-----5-------0-2-3-3---3-----------0-2-|
E|-------3---------3-3-3---------3---3-3-0-3-3-----|
 
G|----------------------------------------|
D|----------------------------------------|
A|-3-3-3-3h5-7-7-7-7h10-5-5-5-5-5-5-5-3-5-|
E|----------------------------------------|
 
G|---------------------------------------------|
D|---------------------------------------------|
A|-------------------0-2-3-3-3-3h5-------0-2-3-|
E|-3-3-3-3-3-3-3-3-3---------------3-3-3-------|
 
 
[Chorus] Give me the cheapest good stuff you got ...
 
G|-------------------|-----------------|
D|-3-3---3-5-5---5-7\|-3-3---3-5-5---5-|
A|-----3-------5-----|-----3-------5---|
E|-------------------|-----------------|
 
G|-----------------|-------------------------4-4-7\|
D|-3-3-3-3-5-5-5-5-|-3-3-3-3-3-3-3-3-5-5-7-7-------|
A|-----------------|-------------------------------|
E|-----------------|-------------------------------|
 
G|---------------------|
D|---------------------| 2x
A|-3-3-3-3h5-----------|
E|-----------5-5-5-5p3-|
 
G|-----------------|-------------------------|
D|-----------------|-------------------------|
A|-----------------|-----------------2-2-5-2-|
E|-1-1-1-1-3-3-3-3-|-1-1-1-1-3-3-5-5---------|
 
 
[Verse] Lost, locked out yesterday, rainy days ...
 
G|-----------------------------------7-7-----|
D|---------------------------------7-----7---|
A|-3-3---3-3h5-7-7---7-10\-5-5---5---------5-|
E|-----3-----------7-----------5-------------|
 
G|-7/9-7-----------------------------------------------|
D|-------7-5-5-----------------------------------------|
A|-------------5-----------0-2-3-3---3-3-----------0-2-|
E|---------------3-3-3-0-3---------3-----3-3-0-3-3-----|
 
G|--------------------------------------|
D|--------------------------------------|
A|-3-3-3-3h5-7-7-7-7h10-5-5-5-5-5-5-5-5\|
E|--------------------------------------|
 
G|---------------------------------------------|
D|---------------------------------------------|
A|-------------------0-2-3-3-3-3h5-------0-2-3-|
E|-3-3-3-3-3-3-3-3-3---------------3-3-3-------|
 
 
[Chorus] Give me the cheapest good stuff you got ...
 
G|-------------------|-----------------7-7-|
D|-3-3---3-5-5---5-7\|-3-3---3-5-5---5-----|
A|-----3-------5-----|-----3-------5-------|
E|-------------------|---------------------|
 
G|-----------------|-------------------------4-4-7\|
D|-3-3-3-3-5-5-5-5-|-3-3-3-3-3-3-3-3-5-5-7-7-------|
A|-----------------|-------------------------------|
E|-----------------|-------------------------------|
 
G|---------------------|
D|---------------------| 2x
A|-3-3-3-3h5-----------|
E|-----------5-5-5-5p3-|
 
 
[Post-Chorus] What's your policy? ...
 
G|-------------------------|-------------------------10h12-|
D|-------------------------|-------------------------------| 2x
A|-8-8-8-8-8-9-10-10-10-10-|-8-8-8-8-8-9-10-10-10-10-------|
E|-------------------------|-------------------------------|
 
G|-------------------------|
D|-------------------------| 2x
A|-8-8-8-8-8-9-10-10-10-10-|
E|-------------------------|
 
G|-------------------------|--------------------|
D|-------------------------|--------------------|
A|-8-8-8-8-8-9-10-10-10-10-|-8-8-8-8-8-8-8-8-10\|
E|-------------------------|--------------------|
 
 
[Bridge]
 
G|---------------------------------------|
D|---------------------------------------|
A|-3-3-3-3h5-----------------------------|
E|-----------5-5-5-5p3-1-1-1-1-3-3-3-3-5-|
 
G|-------------------------------------|
D|-------------------------------------|
A|-3-3-3-3h5---------------------------|
E|-----------5-5-5-5p3-1-1-1-1-3-3-3-3-|
 
 
[Chorus] Give me the cheapest good stuff you got ...
 
G|---------------5/7-5---|-------------------|
D|-3-3-3-3-5-5-5-------5-|-3-3-3-3-5-5---5-5-|
A|-----------------------|-------------5-----|
E|-----------------------|-------------------|
 
G|-----------------|-------------------|
D|-3-3-3-3-5-5-5-5-|-3-3-3-3-3-3-3-3-5\|
A|-----------------|-------------------|
E|-----------------|-------------------|
 
G|---------------------|
D|---------------------| 2x
A|-3-3-3-3h5-----------|
E|-----------5-5-5-5p3-|
 
G|-----------------|-------------------------|
D|-----------------|-------------------------|
A|-----------------|-----------------2-2-5-2-|
E|-1-1-1-1-3-3-3-3-|-1-1-1-1-3-3-5-5---------|
 
 
[Outro]
 
G|-------------------|
D|-------------------| 2x
A|-3-3-3-3h5---------|
E|-----------5-5-5-5-|
 
G|-----------------|-----------------|
D|-----------------|-----------------|
A|-----------------|-------------2-5-|
E|-1-1-1-1-3-3-3-3-|-1-1-1-1-3-5-----|
 
G|---------------------|-----------------------|
D|---------------------|-----------------------|
A|-3-3-3-3h5-----------|-3-3-3-3h5---------4-7-|
E|-----------5-5-5-5-3-|-----------5-5-5-7-----|
 
G|-----------------|-----------------4-4-7-7---|
D|-3-3-3-3-5-5-5-5-|-3-3-3-3-5-5-7-7-----------|
A|-----------------|-------------------------3-|
E|-----------------|---------------------------|
            
Submit corrections

↑ Back to top | Tablatures and chords for acoustic guitar and electric guitar, ukulele, drums are parodies/interpretations of the original songs. You may use it for private study, scholarship, research or language learning purposes only