Home » H » Hot Chip »

Hot Chip - In The Privacy Of Our Love Tabs

Artists:  A B C D E F G H I J K L M N O P Q R S T U V W X Y Z # 

In The Privacy Of Our Love Tabs

(ver. 1) Click to play this song!
Hot Chip
(Live)
Band: Hot Chip

1 = E    4 = D    /
2 = B    5 = A   / - Standard Tuning
3 = G    6 = E  /

1:16 - 1:34

1:8~---8---8--------------------8~--9p8------8---------------------------|\
2:9~----9----X--9~~-------------9~------9----9--9~~--9/11--9~------------| \
3:8~-----8------8~~--X----X-----8~--------8~----8~~--8/10--8~-X----------|  \ Play all this softly,
4:--------------10~--8h10-8h10~-----------------10~-----------8h10-8-6-6~|  / strum up when there's
5:-----------------------------------------------------------------------| /  3 chords slowly.
6:-----------------------------------------------------------------------|/

1:34 - 2:03

1:8~---11p8-----------(8)-X-8~--9h8---------8~-8-------------|\
2:9~---9~--9----9~----------9~-----9~--9~---9~--9-9~---------| \
3:8~--------8~--8~----------8~---------8~---8~----8~-9~-9--9~|  \ Again, play this very softly
4:--------------10~--------------------10~-----------8~------|  / you can improvise it, just
5:---------------------------------------------------10--10--| /  remember when chord are.
6:-----------------------------------------------------------|/

2:03 - 2:28

1:8~-8-------------------------8~-------8~-------8~~|\
2:9~--9----9~---------9--------9~---9~--9~------9~~~| \ 
3:8~---8~--8~------8~---8--8~--8~---8~--8~-----8~~~~|  \ Softly...
4:---------10~-8h10-10---10---------10~------10~~~~~|  /
5:------------------------------------------11~~~~~~| / 
6:--------------------------------------------------|/

That it...





~   = Let ring...
()  = Weak note, very low, hard to hear, soft...
p/h = Pull Off/Hammer On...
/   = Slide Up...
X   = Dead Note, muted string...




Hope you like it, please comment and rate!
            
Submit corrections

↑ Back to top | Tablatures and chords for acoustic guitar and electric guitar, ukulele, drums are parodies/interpretations of the original songs. You may use it for private study, scholarship, research or language learning purposes only