» » »

Horrorpops - Missfit Tabs

Artists:  A B C D E F G H I J K L M N O P Q R S T U V W X Y Z # 

Missfit Tabs

(ver. 1) Click to play this song!
Horrorpops
 Rating:
3.8/5 (5 votes)
    Missfit lessons Tabs too difficult? Try these video lessons and learn fast
                hi everyone. Here is the tab for missfit, the best song in their last
record "kiss kiss kill kill".

Tuning-standard-EADGBE

Guitar 1, intro + verse:


------------------------------------------------------------------|
------------------------------------------------------------------|
-------5-5--5--5-5-5-7-7--7--7-7-7--------------------------------|
-------5-5--5--5-5-5-7-7--7--7-7-7-6-7--7--7-7-7-6-7--7--7-7-7----|
-------3-3--3--3-3-3-5-5--5--5-5-5-6-7--7--7-7-7-6-7--7--7-7-7----|   x6
-2-3-------------------------------4-5--5--5-5-5-4-5--5--5-5-5----|

guitar 2, intro:


------13-------------10-------------------------------------------|
------------------------------------------------------------------|
------------------------------------------------------------------|
-----------------------------------6-7--7--7-7-7-6-7--7--7-7-7----|
-----------------------------------6-7--7--7-7-7-6-7--7--7-7-7----|   x2
-----------------------------------4-5--5--5-5-5-4-5--5--5-5-5----|

guitar 2 in the SIXTH time of the verse:

------------------------------------------------------------|
------------------------------------------------------------|
------------------------------------------------------------|
-----------------------------7-9-10--7-9-10--7-9-10--7-9-10-|
------------------------------------------------------------|
-5-7-8--5-7-8--5-7-8--5-7-8---------------------------------|

Bridge:["And I'm, I'm from the wrong side..."]


------------------------------------|
--1------------------------------10-|
--2------------------------------10-|
--3------------------------------10-|
------------------------------------|
------------------------------------|

-------------------------------------3-----------------|
--1------------------------------5-6---6-5-3-----------|
--2------------------------------------------5-4-5---7-|
--3----------------------------------------------------|
-------------------------------------------------------|
-------------------------------------------------------|

chorus: ["Nothing nothing I say is adequate..."]


-------------------------------------------------------------------|
-------------------------------------------------------------------|
-5-5-5-5-5-5-5-5---------------------------------------------------|
-5-5-5-5-5-5-5-5-5-5-5-5-5-5-5-5-6-6-6-6-6-6-6-6-8-8-8-8-9-9-9-9---|
-3-3-3-3-3-3-3-3-5-5-5-5-5-5-5-5-6-6-6-6-6-6-6-6-8-8-8-8-9-9-9-9---|  x2
-----------------3-3-3-3-3-3-3-3-4-4-4-4-4-4-4-4-6-6-6-6-7-7-7-7---|


Bridge #2: ["My fist in the middle of your face..."]


---------------------------|
-------------------------8-|
-11---------------9------7-|
-12-------7-------9------5-|
-12-------7-------7--------|
-10-------5----------------|


---------------------------|
-------------------------8-|
-7----------------9------7-|
-7--------7-------9------5-|
-5--------7-------7--------|
----------5----------------|


Didn't figure out the solo yet.


That's it. Enjoy the song and please rate :)
            
Submit corrections

↑ Back to top | Tablatures and chords for acoustic guitar and electric guitar, ukulele, drums are parodies/interpretations of the original songs. You may use it for private study, scholarship, research or language learning purposes only