Home » H » Hooverphonic »

Hooverphonic - Bohemian Laughter Bass

Artists:  A B C D E F G H I J K L M N O P Q R S T U V W X Y Z # 

Bohemian Laughter Bass

(ver. 1) Click to play this song!
Hooverphonic
Hooverphonic - Bohemian Laughter


Tuning: Standard EADG

Verse:
G|--------------|---------------|
D|---7-------8--|----7-------6--|
A|-5---5--6-----|-5----5--4-----|
E|--------------|---------------|

G|------------------|-------------------|
D|-------7-------8--|--------7-------6--|
A|-(4)-5---5--6-----|-(6)-5----5--4-----|
E|------------------|-------------------|

Chorus:
G|---------------|
D|--------4(x8)--|
A|-3(x8)---------|
E|---------------|

G|----------------|-----------------|
D|---7-------8----|----7------6-----|
A|-5---5--6-----6-|-5----5--4----4--|
E|----------------|-----------------|

Bridge:
G|--------------------------------------|
D|-6(x8)--5(x8)--4(x8)--3(x8)--2(x8)--1-|
A|--------------------------------------|
E|--------------------------------------|

Outro:
G|-------------------------------------------|
D|-------------------------------------------|
A|-5-5-5-6-----6-6-6---5-5-5-4----4-4-4------|
E|-------------------------------------------|

G|-------------------------------------------------|
D|-------------------------------------------------|
A|-5-5-5-/18-----18-18-18---5-5-5-/16----16-16-16--|
E|-------------------------------------------------|
            
Submit corrections

↑ Back to top | Tablatures and chords for acoustic guitar and electric guitar, ukulele, drums are parodies/interpretations of the original songs. You may use it for private study, scholarship, research or language learning purposes only