Home » H » Hooters »

Hooters - All You Zombies Tabs

Artists:  A B C D E F G H I J K L M N O P Q R S T U V W X Y Z # 

All You Zombies Tabs

(ver. 1) Click to play this song!
Hooters
[Intro]

E|-0-------------------|---------------------|---------------------|
B|---------------------|-3-------------------|-1-------------------|
G|---------------------|---------------------|---------------------|
D|---------------------|---------------------|---------------------|
A|-0---------0---------|-0---------0---------|-0---------0---------|
E|------0---------0----|------0---------0----|------0---------0----|

            +       +       +                                    +       +       +
E|------------------------------|---------------------|------------------------------|---------------------|
B|------------------------------|---------------------|------------------------------|---------------------|
G|-2----------------------------|---------------------|-2----------------------------|---------------------|
D|-2----------------------------|---------------------|-2----------------------------|---------------------|
A|-0--------0---3---0---0-------|-0---------0---------|-0--------0---3---0---0-------|-0---------0---------|
E|-----0--------------------3---|------0---------0----|-----0--------------------3---|------0---------0----|


E|-----------5----7----|-/8------------------|-----------8----10---|-/12------------------|
B|---------------------|---------------------|---------------------|----------------------|
G|---------------------|---------------------|---------------------|----------------------|
D|---------------------|---------------------|---------------------|----------------------|
A|-0---------0---------|-0---------0---------|-0---------0---------|--0---------0---------|
E|------0---------0----|------0---------0----|------0---------0----|-------0---------0----|


E|---------------------|----------------------|-------------|
B|-----------5----8----|-/10------------------|-------------|
G|---------------------|----------------------|-------------|
D|---------------------|----------------------|-------------|
A|-0---------0---------|--0---------0---------|-0-----0-----|
E|------0---------0----|-------0---------0----|----0-----0--|


[Riff]

   Am       +       +       +                                +       +       +
E|------------------------------|---------------------|------------------------------|-------------|
B|--------------1---------------|---------------------|------------------------------|-------------|
G|-2--------2-------2---2---0---|-2-------------------|-2----------------------------|-------------|
D|-2----2---------------2-------|------2---------2----|-2----------------------------|----2-----2--|
A|-0------------0---------------|-0---------0---------|-0--------0---3---0---0-------|-0-----0-----|
E|------------------------------|---------------------|------0-------------------3---|-------------|


[Verse 1+2]

   Dm                    Am                    C                     G
E|-----------1----1----|-1----0----0---------|-0-------------------|---------------------|
B|---------------------|----------------1----|----------------3----|---------------------|
G|---------------------|---------------------|---------------------|---------------------|
D|------0---------0----|------2---------2----|------2---------2----|------0---------0----|
A|-0---------0---------|-0---------0---------|-3---------3---------|-----------2---------|
E|---------------------|---------------------|---------------------|-3-------------------|
             Holy        Moses     met  the    pha-           rao,
             No   one    ever      spoke to    No-            ah,

   Dm                    Am                    G
E|-----------1----1----|-1----0----0---------|---------------------|---------------------|
B|---------------------|----------------1----|-3-------------------|---------------------|
G|---------------------|---------------------|---------------------|---------------------|
D|------0---------0----|------2---------2----|------0---------0----|------0---------0----|
A|-0---------0---------|-0---------0---------|---------------------|-----------2---------|
E|---------------------|---------------------|-3---------3---------|-3-------------------|
             Yeah, he    tried to  set  him    straight.
             They  all   laughed   at   him in-stead.

   Dm            +       +     Am                    C                     G
E|-----------1---1---1---1---|-0-------------------|-----------0----0----|-0-------------------|
B|---------------------------|---------------------|---------------------|------3----3---------|
G|---------------------------|---------------------|---------------------|---------------------|
D|------0------------0-------|------2---------2----|------2---------2----|------0---------0----|
A|-0---------0---------------|-0---------0---------|-3---------3---------|-----------2---------|
E|---------------------------|---------------------|---------------------|-3-------------------|
             Looked him in the eye.                            "Let my     people    go!"
             Working on his    ark,                             Working all by himself.

   F                     Em
E|---------------------|---------------------|
B|-1-------1------1----|-0-------0------0----|
G|---------------------|---------------------|
D|------3---------3----|------2---------2----|
A|---------------------|---------------------|
E|-1---------1---------|-0---------0---------|


   Dm                    Am                    C                     G
E|-----------1----1----|-1----0----0---------|-0-------------------|---------------------|
B|---------------------|----------------1----|----------------3----|---------------------|
G|---------------------|---------------------|---------------------|---------------------|
D|------0---------0----|------2---------2----|------2---------2----|------0---------0----|
A|-0---------0---------|-0---------0---------|-3---------3---------|-----------2---------|
E|---------------------|---------------------|---------------------|-3-------------------|
             Holy        Moses     on   the    moun-          tain,
             Only        Noah      saw  it     co-            ming.

   Dm                    Am                    G
E|-----------1----1----|-1----0----0---------|---------------------|---------------------|
B|---------------------|----------------1----|-3-------------------|---------------------|
G|---------------------|---------------------|---------------------|---------------------|
D|------0---------0----|------2---------2----|------0---------0----|------0---------0----|
A|-0---------0---------|-0---------0---------|---------------------|-----------2---------|
E|---------------------|---------------------|-3---------3---------|-3-------------------|
             high a-     bove the  gol- den    calf
             Forty       days and  forty       nights,

   Dm                    Am                    C                     G
E|-----------1----1----|-1----0----0---------|-0-------------------|---------------------|
B|---------------------|----------------1----|----------------3----|---------------------|
G|---------------------|---------------------|---------------------|---------------------|
D|------0---------0----|------2---------2----|------2---------2----|------0---------0----|
A|-0---------0---------|-0---------0---------|-3---------3---------|-----------2---------|
E|---------------------|---------------------|---------------------|-3-------------------|
             Went to     get  the  ten  comm-  and-           ments.
             Took his    sons and  daughters   with           him.

   F                     Em
E|---------------------|---------------------|
B|-1-------1------1----|-0-------0------0----|
G|---------------------|---------------------|
D|------3---------3----|------2---------2----|
A|---------------------|---------------------|
E|-1---------1---------|-0---------0---------|
   Yeah, he just gonna   break 'em in half.
   Yeah,   they   were   Israelites!


[Riff]

   Am       +       +       +                                +       +       +
E|------------------------------|---------------------|------------------------------|-------------|
B|--------------1---------------|---------------------|------------------------------|-------------|
G|-2--------2-------2---2---0---|-2-------------------|-2----------------------------|-------------|
D|-2----2---------------2-------|------2---------2----|-2----------------------------|----2-----2--|
A|-0------------0---------------|-0---------0---------|-0--------0---3---0---0-------|-0-----0-----|
E|------------------------------|---------------------|------0-------------------3---|-------------|


[Chorus]

   Dm                    Am                    C                     G
E|-----------1----1----|-1----0----0---------|-0-------------------|---------------------|
B|---------------------|----------------1----|----------------3----|---------------------|
G|---------------------|---------------------|---------------------|---------------------|
D|------0---------0----|------2---------2----|------2---------2----|------0---------0----|
A|-0---------0---------|-0---------0---------|-3---------3---------|-----------2---------|
E|---------------------|---------------------|---------------------|-3-------------------|
             All  you    zombies   hide your   fa-            ces,
             All  you    zombies   hide your   fa-            ces,
             All  you    zombies   hide your   fa-            ces,

   Dm                    Am                    G
E|-----------1----1----|-1----0----0---------|---------------------|---------------------|
B|---------------------|----------------1----|-3-------------------|---------------------|
G|---------------------|---------------------|---------------------|---------------------|
D|------0---------0----|------2---------2----|------0---------0----|------0---------0----|
A|-0---------0---------|-0---------0---------|---------------------|-----------2---------|
E|---------------------|---------------------|-3---------3---------|-3-------------------|
             All  you    people    in   the    street,
             All  you    people    in   the    street,
             All  you    people    in   the    street,

   Dm                    Am                    C                     G
E|-----------1----1----|-1----0----0---------|-0-------------------|---------------------|
B|---------------------|----------------1----|----------------3----|---------------------|
G|---------------------|---------------------|---------------------|---------------------|
D|------0---------0----|------2---------2----|------2---------2----|------0---------0----|
A|-0---------0---------|-0---------0---------|-3---------3---------|-----------2---------|
E|---------------------|---------------------|---------------------|-3-------------------|
             All  you    sittin'   in   high   places,
             All  you    sittin'   in   high   places,
             All  you    sittin'   in   high   places,

   F                     Em
E|---------------------|---------------------|
B|-1-------1------1----|-0-------0------0----|
G|---------------------|---------------------|
D|------3---------3----|------2---------2----|
A|---------------------|---------------------|
E|-1---------1---------|-0---------0---------|
           The pieces gonna fall on you.
           The rain's gonna fall on you.
           It's all   gonna fall on you.


[Riff]

   Am       +       +       +                                +       +       +
E|------------------------------|---------------------|------------------------------|-------------|
B|--------------1---------------|---------------------|------------------------------|-------------|
G|-2--------2-------2---2---0---|-2-------------------|-2----------------------------|-------------|
D|-2----2---------------2-------|------2---------2----|-2----------------------------|----2-----2--|
A|-0------------0---------------|-0---------0---------|-0--------0---3---0---0-------|-0-----0-----|
E|------------------------------|---------------------|------0-------------------3---|-------------|


[Verse 3]

   Dm                    Am                    C                     G
E|-----------1----1----|-1----0----0---------|-0-------------------|---------------------|
B|---------------------|----------------1----|----------------3----|---------------------|
G|---------------------|---------------------|---------------------|---------------------|
D|------0---------0----|------2---------2----|------2---------2----|------0---------0----|
A|-0---------0---------|-0---------0---------|-3---------3---------|-----------2---------|
E|---------------------|---------------------|---------------------|-3-------------------|
             Holy        Father    what's the  matter,

   Dm                    Am                    G
E|-----------1----1----|-1----0----0---------|---------------------|---------------------|
B|---------------------|----------------1----|-3-------------------|---------------------|
G|---------------------|---------------------|---------------------|---------------------|
D|------0---------0----|------2---------2----|------0---------0----|------0---------0----|
A|-0---------0---------|-0---------0---------|---------------------|-----------2---------|
E|---------------------|---------------------|-3---------3---------|-3-------------------|
             Where have  all  your children    gone?

   Dm                    Am                    C                     G
E|-----------1----1----|-1----0----0---------|-0-------------------|---------------------|
B|---------------------|----------------1----|----------------3----|---------------------|
G|---------------------|---------------------|---------------------|---------------------|
D|------0---------0----|------2---------2----|------2---------2----|------0---------0----|
A|-0---------0---------|-0---------0---------|-3---------3---------|-----------2---------|
E|---------------------|---------------------|---------------------|-3-------------------|
             Sitin' in the dark, living all by themselves,

   F                     Em
E|---------------------|---------------------|
B|-1-------1------1----|-0-------0------0----|
G|---------------------|---------------------|
D|------3---------3----|------2---------2----|
A|---------------------|---------------------|
E|-1---------1---------|-0---------0---------|
   You don't have to     hide anymore!            
Submit corrections

↑ Back to top | Tablatures and chords for acoustic guitar and electric guitar, ukulele, drums are parodies/interpretations of the original songs. You may use it for private study, scholarship, research or language learning purposes only