Home » H » Hillsong Young And Free »

Hillsong Young And Free - Highs And Lows Tabs

Artists:  A B C D E F G H I J K L M N O P Q R S T U V W X Y Z # 

Highs And Lows Tabs

(ver. 1) Click to play this song!
Hillsong Young And Free
 Rating:
4.3/5 (22 votes)
                [Intro]
 
     G
E|------------------------------------------|
B|--------------------0---------------------|
G|---------------------------0--------------|
D|----------0-------------------------------|  x4
A|------------------------------------------|
E|----3----------3--------------------------|
 
     Bm
E|------------------------------------------|
B|--------------------3---------------------|
G|----------2----------------2--------------|
D|------------------------------------------|  x4
A|------------------------------------------|
E|----2----------2--------------------------|
 
     Cadd9
E|------------------------------------------|
B|--------------------3---------------------|
G|----------0--------------0----------------|
D|------------------------------------------|  x2
A|----3----------3--------------------------|
E|------------------------------------------|
 
     C
E|------------------------------------------|
B|--------------------1---------------------|
G|----------0--------------0----------------|
D|------------------------------------------|  x2
A|-----3---------3--------------------------|
E|------------------------------------------|
 
     G
E|------------------------------------------|
B|--------------------0---------------------|
G|---------------------------0--------------|
D|----------0-------------------------------|  x4
A|------------------------------------------|
E|----3----------3--------------------------|
 
[Verse 1]
 
     G
E|------------------------------------------|
B|--------------------0---------------------|
G|---------------------------0--------------|
D|----------0-------------------------------|  x4
A|------------------------------------------|
E|----3----------3--------------------------|
 
     Bm
E|------------------------------------------|
B|--------------------3---------------------|
G|----------2----------------2--------------|
D|------------------------------------------|  x4
A|------------------------------------------|
E|----2----------2--------------------------|
 
     Cadd9
E|------------------------------------------|
B|--------------------3---------------------|
G|----------0--------------0----------------|
D|------------------------------------------|  x2
A|----3----------3--------------------------|
E|------------------------------------------|
 
     C
E|------------------------------------------|
B|--------------------1---------------------|
G|----------0--------------0----------------|
D|------------------------------------------|  x2
A|-----3---------3--------------------------|
E|------------------------------------------|
 
     G
E|------------------------------------------|
B|--------------------0---------------------|
G|---------------------------0--------------|
D|----------0-------------------------------|  x4
A|------------------------------------------|
E|----3----------3--------------------------|
 
[Verse 2]
 
     G
E|------------------------------------------|
B|--------------------0---------------------|
G|---------------------------0--------------|
D|----------0-------------------------------|  x4
A|------------------------------------------|
E|----3----------3--------------------------|
 
     Bm
E|------------------------------------------|
B|--------------------3---------------------|
G|----------2----------------2--------------|
D|------------------------------------------|  x4
A|------------------------------------------|
E|----2----------2--------------------------|
 
     Cadd9
E|------------------------------------------|
B|--------------------3---------------------|
G|----------0--------------0----------------|
D|------------------------------------------|  x2
A|----3----------3--------------------------|
E|------------------------------------------|
 
     C
E|------------------------------------------|
B|--------------------1---------------------|
G|----------0--------------0----------------|
D|------------------------------------------|  x2
A|-----3---------3--------------------------|
E|------------------------------------------|
 
     G
E|------------------------------------------|
B|--------------------0---------------------|
G|---------------------------0--------------|
D|----------0-------------------------------|  x4
A|------------------------------------------|
E|----3----------3--------------------------|
 
[Chorus]
 
     Em
E|------------------------------------------|
B|----------------------0-------------------|
G|----------0------------------0------------|
D|------------------------------------------|  x4
A|------------------------------------------|
E|----0-----------0-------------------------|
 
     C
E|------------------------------------------|
B|--------------------1---------------------|
G|----------0--------------0----------------|
D|------------------------------------------|  x4
A|-----3---------3--------------------------|
E|------------------------------------------|
 
     D
E|---------------------2--------------------|
B|----------3----------------3--------------|
G|------------------------------------------|
D|----0----------0--------------------------|  x4
A|------------------------------------------|
E|------------------------------------------|
 
     Em
E|------------------------------------------|
B|----------------------0-------------------|
G|----------0------------------0------------|
D|------------------------------------------|  x4
A|------------------------------------------|
E|----0-----------0-------------------------|
 
     C
E|------------------------------------------|
B|--------------------1---------------------|
G|----------0--------------0----------------|
D|------------------------------------------|
A|-----3---------3--------------------------|
E|------------------------------------------|
 
     C
E|------------------------------------------|
B|--------------------1---------------------|
G|----------0--------------0----------------|
D|------------------------------------------|
A|-----3---------3-----------------3--------|
E|------------------------------------------|
 
[Verse 3]
 
     G
E|------------------------------------------|
B|--------------------0---------------------|
G|---------------------------0--------------|
D|----------0-------------------------------|  x4
A|------------------------------------------|
E|----3----------3--------------------------|
 
     Bm
E|------------------------------------------|
B|--------------------3---------------------|
G|----------2----------------2--------------|
D|------------------------------------------|  x4
A|------------------------------------------|
E|----2----------2--------------------------|
 
     Cadd9
E|------------------------------------------|
B|--------------------3---------------------|
G|----------0--------------0----------------|
D|------------------------------------------|  x2
A|----3----------3--------------------------|
E|------------------------------------------|
 
     C
E|------------------------------------------|
B|--------------------1---------------------|
G|----------0--------------0----------------|
D|------------------------------------------|  x2
A|-----3---------3--------------------------|
E|------------------------------------------|
 
     G
E|------------------------------------------|
B|--------------------0---------------------|
G|---------------------------0--------------|
D|----------0-------------------------------|  x4
A|------------------------------------------|
E|----3----------3--------------------------|
 
[Verse 4]
 
     G
E|------------------------------------------|
B|--------------------0---------------------|
G|---------------------------0--------------|
D|----------0-------------------------------|  x4
A|------------------------------------------|
E|----3----------3--------------------------|
 
     Bm
E|------------------------------------------|
B|--------------------3---------------------|
G|----------2----------------2--------------|
D|------------------------------------------|  x4
A|------------------------------------------|
E|----2----------2--------------------------|
 
     Cadd9
E|------------------------------------------|
B|--------------------3---------------------|
G|----------0--------------0----------------|
D|------------------------------------------|  x2
A|----3----------3--------------------------|
E|------------------------------------------|
 
     C
E|------------------------------------------|
B|--------------------1---------------------|
G|----------0--------------0----------------|
D|------------------------------------------|  x2
A|-----3---------3--------------------------|
E|------------------------------------------|
 
     G
E|------------------------------------------|
B|--------------------0---------------------|
G|---------------------------0--------------|
D|----------0-------------------------------|  x4
A|------------------------------------------|
E|----3----------3--------------------------|
 
[Instrumental]
 
     G
E|------------------------------------------|
B|--------------------0---------------------|
G|---------------------------0--------------|
D|----------0-------------------------------|  x4
A|------------------------------------------|
E|----3----------3--------------------------|
 
     Bm
E|------------------------------------------|
B|--------------------3---------------------|
G|----------2----------------2--------------|
D|------------------------------------------|  x4
A|------------------------------------------|
E|----2----------2--------------------------|
 
     Cadd9
E|------------------------------------------|
B|--------------------3---------------------|
G|----------0--------------0----------------|
D|------------------------------------------|  x2
A|----3----------3--------------------------|
E|------------------------------------------|
 
     C
E|------------------------------------------|
B|--------------------1---------------------|
G|----------0--------------0----------------|
D|------------------------------------------|  x2
A|-----3---------3--------------------------|
E|------------------------------------------|
 
     G
E|------------------------------------------|
B|--------------------0---------------------|
G|---------------------------0--------------|
D|----------0-------------------------------|  x4
A|------------------------------------------|
E|----3----------3--------------------------|
 
[Chorus]
 
     Em
E|------------------------------------------|
B|----------------------0-------------------|
G|----------0------------------0------------|
D|------------------------------------------|  x4
A|------------------------------------------|
E|----0-----------0-------------------------|
 
     C
E|------------------------------------------|
B|--------------------1---------------------|
G|----------0--------------0----------------|
D|------------------------------------------|  x4
A|-----3---------3--------------------------|
E|------------------------------------------|
 
     D
E|---------------------2--------------------|
B|----------3----------------3--------------|
G|------------------------------------------|
D|----0----------0--------------------------|  x4
A|------------------------------------------|
E|------------------------------------------|
 
     Em
E|------------------------------------------|
B|----------------------0-------------------|
G|----------0------------------0------------|
D|------------------------------------------|  x4
A|------------------------------------------|
E|----0-----------0-------------------------|
 
     C
E|------------------------------------------|
B|--------------------1---------------------|
G|----------0--------------0----------------|
D|------------------------------------------|
A|-----3---------3--------------------------|
E|------------------------------------------|
 
     C
E|------------------------------------------|
B|--------------------1---------------------|
G|----------0--------------0----------------|
D|------------------------------------------|
A|-----3---------3-----------------3--------|
E|------------------------------------------|
 
[Outro]
 
     G
E|------------------------------------------|
B|--------------------0---------------------|
G|---------------------------0--------------|
D|----------0-------------------------------|  x4
A|------------------------------------------|
E|----3----------3--------------------------|
 
     Bm
E|------------------------------------------|
B|--------------------3---------------------|
G|----------2----------------2--------------|
D|------------------------------------------|  x4
A|------------------------------------------|
E|----2----------2--------------------------|
 
     Cadd9
E|------------------------------------------|
B|--------------------3---------------------|
G|----------0--------------0----------------|
D|------------------------------------------|  x2
A|----3----------3--------------------------|
E|------------------------------------------|
 
     C
E|------------------------------------------|
B|--------------------1---------------------|
G|----------0--------------0----------------|
D|------------------------------------------|  x2
A|-----3---------3--------------------------|
E|------------------------------------------|
 
     G
E|------------------------------------------|
B|--------------------0---------------------|
G|---------------------------0--------------|
D|----------0-------------------------------|  x4
A|------------------------------------------|
E|----3----------3--------------------------|
            
Submit corrections

↑ Back to top | Tablatures and chords for acoustic guitar and electric guitar, ukulele, drums are parodies/interpretations of the original songs. You may use it for private study, scholarship, research or language learning purposes only