» » »

Hillsong Worship - Look To The Son Tabs

Artists:  A B C D E F G H I J K L M N O P Q R S T U V W X Y Z # 

Look To The Son Tabs

(ver. 1) Click to play this song!
Hillsong Worship
 Rating:
4.3/5 (6 votes)

 Look To The Son lessons Tabs too difficult? Try these video lessons and learn fast
 
                [Intro] - PM
e|-----------|
B|-----------|
G|-----5-----|
D|--3--5--5--| x2
A|--3--3--5--|
E|--1-----3--|

[Main Lead Line]
e|--13---12---8---13---12---8---8---10--|
B|--13---13---8---13---13---8---8---8---|
G|--------------------------------------|
D|--------------------------------------| x2
A|--------------------------------------|
E|--------------------------------------|

[Verse]
Played with 1/4 and dotted 1/8 delay, listen for the pattern.  4 beats per bar.
e|------|------|------|------|
B|--10--|--8---|--12--|--12--|
G|------|------|------|------|
D|--10--|--10--|--12--|--12--| x4
A|------|------|------|------|
E|------|------|------|------|


[Pre-Chorus]
e|-------------0--|    |------------0--|
B|------8---------|    |------8--------|
G|---------10-----|    |---------7-----|
D|--10------------| x2 |--10-----------| x2
A|----------------|    |---------------|
E|----------------|    |---------------|

[Chorus]
Listen for the strum patterns. 4 beats per bar.
e|--8--|--8--|--7--|--7--|
B|--6--|--5--|--8--|--8--|
G|--5--|--5--|--7--|--7--|
D|-----|-----|-----|-----| x2
A|-----|-----|-----|-----|
E|-----|-----|-----|-----|

[Big End]
e|-----|
B|-----|
G|-----|
D|--3--|
A|--3--|
E|--1--|
            
Submit corrections


        Look To The Son lessons Hard to play? Try these video lessons and learn fast Look To The Son lessons
        
↑ Back to top | Tablatures and chords for acoustic guitar and electric guitar, ukulele, drums are parodies/interpretations of the original songs. You may use it for private study, scholarship, research or language learning purposes only