» » »

Hillsongs - Let Creation Sing Tabs

Artists:  A B C D E F G H I J K L M N O P Q R S T U V W X Y Z # 

Let Creation Sing Tabs

(ver. 1) Click to play this song!
Hillsongs
 Rating:
4/5 (4 votes)


 Let Creation Sing lessons Tabs too difficult? Try these video lessons and learn fast
 
                LET CREATION SING
Hillsong from the album “GOD HE REIGNS”
Track No. 1 Disc No. 1
Guitar 1: Acoustic Guitar
Guitar 2: Electric Guitar
Guitar 3: Keyboard arr. for guitar
it's not 100% accurate but it can help to those P&W Guitar Player

Tuning: Standard

INTRO: Drums and keyboard 

VERSE 1: Drums and Keyboard
 The whole earth overflowing with Your power and Your glory
 There is no one like You, God. There is no one like You

VERSE 2:
    D                         Em      C
|-----------------------------------------------------------|
|--5h7-7-5-5h7-7-5h7-7-7-7-7-8-8-8-8-5-5-5-5----------------|
|--7---7-7-7---7-7---7-7-7-7-9-9-9-9-5-5-5-5----------------|
|-----------------------------------------------------------|
|-----------------------------------------------------------|
|-----------------------------------------------------------|
 Mountains bow, nation’s tremble 
   D                          Em     C
|-----------------------------------------------------------|
|--5h7-7-5-5h7-7-5h7-7-7-7-7-8-8-8-8-5-5-5-5----------------|
|--7---7-7-7---7-7---7-7-7-7-9-9-9-9-5-5-5-5----------------|
|-----------------------------------------------------------|
|-----------------------------------------------------------|
|-----------------------------------------------------------|
  At Your feet we cry Holy
   F#m        Em      C         F#m        Em      C
|-----------------------------------------------------------|
|-10-10-10-10-8-8-8-8-5-5-5-5--10-10-10-10-8-8-8-8-5-5-5-5--|
|-11-11-11-11-9-9-9-9-5-5-5-5--11-11-11-11-9-9-9-9-5-5-5-5--|
|-----------------------------------------------------------|
|-----------------------------------------------------------|
|-----------------------------------------------------------|
  There is no one like You, God. There is no one like You

 CHORUS:
  Gsus     G/C     Em    D     Gsus       G/C     Dsus4 Am
|-3-3-3-3-3-3-3-3-7-7-7-5-5-5-3-3-3-3-3-3-3-3-3-3-5-5-5-0-0-|
|-3-3-3-3-3-3-3-3-8-8-8-7-7-7-3-3-3-3-3-3-3-3-3-3-8-8-8-2-2-|
|-5-5-5-5-4-4-4-4-9-9-9-7-7-7-5-5-5-5-5-5-4-4-4-4-7-7-7-2-2-|
|-5-5-5-5-5-5-5-5-9-9-9-7-7-7-5-5-5-5-5-5-5-5-5-5-7-7-7-2-2-|
|-5-5-5-5-5-5-5-5-7-7-7-5-5-5-5-5-5-5-5-5-5-5-5-5-5-5-5-0-0-|
|-3-3-3-3-3-3-3-3-------------3-3-3-3-3-3-3-3-3-3-----------|
Let creation sing of the risen King, let the universe resound

   Gsus        G/C       Em       D
|--3-3-3-3-3-3-3-3-3-3-7-7-7-7-5-5-5-5-5--------------------|
|--3-3-3-3-3-3-3-3-3-3-8-8-8-8-7-7-7-7-7--------------------|
|--5-5-5-5-5-5-4-4-4-4-9-9-9-9-7-7-7-7-7--------------------|
|--5-5-5-5-5-5-5-5-5-5-9-9-9-9-7-7-7-7-7--------------------|
|--5-5-5-5-5-5-5-5-5-5-7-7-7-7-5-5-5-5-5--------------------|
|--3-3-3-3-3-3-3-3-3-3--------------------------------------|
 With a shout of love we will give to You
 
   Gsus         G/C     Em              Distorted Guitar   
|--3-3-3-3-3-3-3-3-3-3-7-7-7-7-7-7------x-x-x-x-x-x---------|
|--3-3-3-3-3-3-3-3-3-3-8-8-8-8-8-8------x-x-x-x-x-x---------|
|--5-5-5-5-5-5-4-4-4-4-9-9-9-9-9-9------x-x-x-x-x-x---------|
|--5-5-5-5-5-5-5-5-5-5-9-9-9-9-9-9------x-x-x-x-x-x---------|
|--5-5-5-5-5-5-5-5-5-5-7-7-7-7-7-7------x-x-x-x-x-x---------|
|--3-3-3-3-3-3-3-3-3-3------------------x-x-x-x-x-x---------|
 All the highest praise

INTERLUDE:
   Gsus          G/C         Em           D
|--8-8-8-8-8-8--7-7-7-7-7-7--7-7-7-7-7-7--5-5-5-5-5-5-------|
|--8-8-8-8-8-8--8-8-8-8-8-8--8-8-8-8-8-8--7-7-7-7-7-7-------|
|--7-7-7-7-7-7--7-7-7-7-7-7--9-9-9-9-9-9--7-7-7-7-7-7-------|
|-----------------------------------------------------------|
|-----------------------------------------------------------|
|-----------------------------------------------------------|

VERSE 3:
   D           Em         C        D        Em      C
|-10-10-10-10-10-10-10-10-8-8-8-8-10-10-10-10-10-10-8-8-8-8-|
|--7--7--7--7--8--8--8--8-8-8-8-8--7--7--7--8--8--8-8-8-8-8-|
|--7--7--7--7--9--9--9--9-9-9-9-9--7--7--7--9--9--9-9-9-9-9-|
|-----------------------------------------------------------|
|-----------------------------------------------------------|
|-----------------------------------------------------------|
 Let Your light shine upon us, let Your light shine upon us

   D          Em          C        D         Em     C
|-10-10-10-10-10-10-10-10-8-8-8-8-10-10-10-10-10-10-8-8-8-8-|
|--7--7--7--7--8--8--8--8-8-8-8-8--7--7--7--8--8--8-8-8-8-8-|
|--7--7--7--7--9--9--9--9-9-9-9-9--7--7--7--9--9--9-9-9-9-9-|
|-----------------------------------------------------------|
|-----------------------------------------------------------|
|-----------------------------------------------------------|
For the glory of Your Name will over all the earth

CHORUS 2: Guitar 1 play Chorus 1 guitar lines
 Guitar 2:
  Gsus     G/C     Em    D     Gsus       G/C     Dsus4 Am
|-8-8-8-8-7-7-7-7-7-7-7-5-5-5-8-8-8-8-7-7-7-7-7-7-7-7-5-5-5-|
|-8-8-8-8-8-8-8-8-8-8-8-7-7-7-8-8-8-8-8-8-8-8-8-8-8-8-5-5-5-|
|-7-7-7-7-7-7-7-7-9-9-9-7-7-7-7-7-7-7-7-7-7-7-7-7-7-7-5-5-5-|
|-5-5-5-5-5-5-5-5-9-9-9-7-7-7-5-5-5-5-5-5-5-5-7-7-7-7-7-7-7-|
|-----------------------------------------------------------|
|-----------------------------------------------------------|
Let creation sing of the risen King, let the universe resound

   Gsus        G/C       Em       D
|-8-8-8-8-8-8-7-7-7-7-7-7-7-7-7-7-7-7-5-5-5-5-5-5-----------|
|-8-8-8-8-8-8-8-8-8-8-8-8-8-8-8-8-8-8-7-7-7-7-7-7-----------|
|-7-7-7-7-7-7-7-7-7-7-7-7-9-9-9-9-9-9-7-7-7-7-7-7-----------|
|-5-5-5-5-5-5-5-5-5-5-5-5-9-9-9-9-9-9-7-7-7-7-7-7-----------|
|-----------------------------------------------------------|
|-----------------------------------------------------------|
 With a shout of love we will give to You

   Gsus        G/C       Em       D
|-8-8-8-8-8-8-7-7-7-7-7-7-7-7-7-7-7-7-5-5-5-5-5-5-----------|
|-8-8-8-8-8-8-8-8-8-8-8-8-8-8-8-8-8-8-7-7-7-7-7-7-----------|
|-7-7-7-7-7-7-7-7-7-7-7-7-9-9-9-9-9-9-7-7-7-7-7-7-----------|
|-5-5-5-5-5-5-5-5-5-5-5-5-9-9-9-9-9-9-7-7-7-7-7-7-----------|
|-----------------------------------------------------------|
|-----------------------------------------------------------| 
All the highest praise

  Gsus     G/C     Em    D     Gsus       G/C     Dsus4 Am
|-8-8-8-8-7-7-7-7-7-7-7-5-5-5-8-8-8-8-7-7-7-7-7-7-7-7-5-5-5-|
|-8-8-8-8-8-8-8-8-8-8-8-7-7-7-8-8-8-8-8-8-8-8-8-8-8-8-5-5-5-|
|-7-7-7-7-7-7-7-7-9-9-9-7-7-7-7-7-7-7-7-7-7-7-7-7-7-7-5-5-5-|
|-5-5-5-5-5-5-5-5-9-9-9-7-7-7-5-5-5-5-5-5-5-5-7-7-7-7-7-7-7-|
|-----------------------------------------------------------|
|-----------------------------------------------------------|
Let creation sing of the risen King, let the universe resound

   Gsus        G/C       Em       D
|-8-8-8-8-8-8-7-7-7-7-7-7-7-7-7-7-7-7-5-5-5-5-5-5-----------|
|-8-8-8-8-8-8-8-8-8-8-8-8-8-8-8-8-8-8-7-7-7-7-7-7-----------|
|-7-7-7-7-7-7-7-7-7-7-7-7-9-9-9-9-9-9-7-7-7-7-7-7-----------|
|-5-5-5-5-5-5-5-5-5-5-5-5-9-9-9-9-9-9-7-7-7-7-7-7-----------|
|-----------------------------------------------------------|
|-----------------------------------------------------------|
 With a shout of love we will give to You

   Gsus        G/C       Em       D
|-8-8-8-8-8-8-7-7-7-7-7-7-7-7-7-7-7-7-5-5-5-5-5-5-----------|
|-8-8-8-8-8-8-8-8-8-8-8-8-8-8-8-8-8-8-7-7-7-7-7-7-----------|
|-7-7-7-7-7-7-7-7-7-7-7-7-9-9-9-9-9-9-7-7-7-7-7-7-----------|
|-5-5-5-5-5-5-5-5-5-5-5-5-9-9-9-9-9-9-7-7-7-7-7-7-----------|
|-----------------------------------------------------------|
|-----------------------------------------------------------| 
All the highest praise

INSTRUMENTAL:
    G        C         D         Am
|-------3----------3---------5--0---------------------------|
|-----3---------3---------3--------1------------------------|
|----------------------2-------------2----------------------|
|-------------2--------0------------------------------------|
|--2----------3-----------------0---------------------------|
|--3--------------------------------------------------------|

BRIDGE:
   G          C        D        Am
|-------3----------3---------5--0---------------------------|
|-----3---------3---------3--------1------------------------|
|----------------------2-------------2----------------------|
|-------------2--------0------------------------------------|
|--2----------3-----------------0---------------------------|
|--3--------------------------------------------------------|
 Forever,  forever I’ll sing

   G          C        D        Am
|-------3----------3---------5--0---------------------------|
|-----3---------3---------3--------1------------------------|
|----------------------2-------------2----------------------|
|-------------2--------0------------------------------------|
|--2----------3-----------------0---------------------------|
|--3--------------------------------------------------------|
 Forever,  forever I’ll sing

REPEAT 3X:
CHORUS 3: ACAPELLA
    Gsus      G/C       Em      D          Gsus  G/C  Dsus Am
|---3---------3----------0------2----------3------3----5--0-|
|---3---------3----------0------3----------3------3----8--1-|
|---5---------4----------0------2----------5------4----7--2-|
|---5---------5----------2------0----------5------5----7--2-|
|---5---------5----------2-----------------5------5----5--0-|
|---3---------3----------0-----------------3------3---------|
Let creation sing of the risen King, let the universe resound

    Gsus       G/C        Em             D  
   P.M.
|---8--8--8--8--7--7--7--7--7--7--7--7--5--5--5--5----------|
|---8--8--8--8--8--8--8--8--8--8--8--8--7--7--7--7----------|
|---7--7--7--7--7--7--7--7--9--9--9--9--7--7--7--7----------|
|-----------------------------------------------------------|
|-----------------------------------------------------------|
|-----------------------------------------------------------|
 With a shout of love we will give to You

    Gsus        G/C         Em          D 
    P.M.
|---8--8--8--8--7--7--7--7--7--7--7--7--5--5--5--5----------|
|---8--8--8--8--8--8--8--8--8--8--8--8--7--7--7--7----------|
|---7--7--7--7--7--7--7--7--9--9--9--9--7--7--7--7----------|
|-----------------------------------------------------------|
|-----------------------------------------------------------|
|-----------------------------------------------------------|
     All the highest praise

    Gsus         G/C        Em          D
    P.M.
|---8--8--8--8--7--7--7--7--7--7--7--7--5--5--5--5----------|
|---8--8--8--8--8--8--8--8--8--8--8--8--7--7--7--7----------|
|---7--7--7--7--7--7--7--7--9--9--9--9--7--7--7--7----------|
|-----------------------------------------------------------|
|-----------------------------------------------------------|
|-----------------------------------------------------------|
   Let creation sing of the risen King

   Gsus        G/C          Dsus         Am        
    P.M.
|---8--8--8--8--7--7--7--7----------------------------------|
|---8--8--8--8--8--8--8--8--8--8--8--8--5--5--5--5----------|
|---7--7--7--7--7--7--7--7--7--7--7--7--5—-5--5—-5----------|
|---------------------------7--7--7--7--7--7--7--7----------|
|-----------------------------------------------------------|
|-----------------------------------------------------------|
   Let the universe resound
 
    Gsus       G/C         Em           D
    P.M.
|---8--8--8--8--7--7--7--7--7--7--7--7--5--5--5--5----------|
|---8--8--8--8--8--8--8--8--8--8--8--8--7--7--7--7----------|
|---7--7--7--7--7--7--7--7--9--9--9--9--7--7--7--7----------|
|-----------------------------------------------------------|
|-----------------------------------------------------------|
|-----------------------------------------------------------|
  With a shout of love we will give to You

    Gsus       G          Em            D
    P.M.
|---8--8--8--8--7--7--7--7--7--7--7--7--5--5--5--5----------|
|---8--8--8--8--8--8--8--8--8--8--8--8--7--7--7--7----------|
|---7--7--7--7--7--7--7--7--9--9--9--9--7--7--7--7----------|
|-----------------------------------------------------------|
|-----------------------------------------------------------|
|-----------------------------------------------------------|
  all the highest praise

OUTRO:
   G        C      D       Am     G      C       D     Am
|--3-3-3-3-3-3-3-3-2-2-2-2-------3-3-3-3-3-3-3-3-2-2-2------|
|--3-3-3-3-3-3-3-3-3-3-3-3-------3-3-3-3-3-3-3-3-3-3-3------|
|--0-0-0-0-0-0-0-0-2-2-2-2-5-4-2-0-0-0-0-0-0-0-0-2-2-2-5-4-2|
|--0-0-0-0-2-2-2-2-0-0-0-0-5-5---0-0-0-0-2-2-2-2-0-0-0-5-5--|
|--2-2-2-2-3-3-3-3---------------2-2-2-2-3-3-3-3------------|
|--3-3-3-3-----------------------3-3-3-3--------------------|
  Forever, forever I’ll sing forever, forever I’ll sing

   G       C       D       Am    G        C      D     
|--3-3-3-3-3-3-3-3-2-2-2-2-------3-3-3-3-3-3-3-3-2-2-2-2----|
|--3-3-3-3-3-3-3-3-3-3-3-3-------3-3-3-3-3-3-3-3-3-3-3-3----|
|--0-0-0-0-0-0-0-0-2-2-2-2-5-4-2-0-0-0-0-0-0-0-0-2-2-2-2----|
|--0-0-0-0-2-2-2-2-0-0-0-0-5-5---0-0-0-0-2-2-2-2-0-0-0-0----|
|--2-2-2-2-3-3-3-3---------------2-2-2-2-3-3-3-3------------|
|--3-3-3-3-----------------------3-3-3-3--------------------|
  Forever, forever I’ll sing forever, forever I’ll sing
 
REGARDS TO SOUTH COTABATO CHRISTIAN ROCKERS!
            
Submit corrections



        Let Creation Sing lessons Hard to play? Try these video lessons and learn fast Let Creation Sing lessons
        
↑ Back to top | Tablatures and chords for acoustic guitar and electric guitar, ukulele, drums are parodies/interpretations of the original songs. You may use it for private study, scholarship, research or language learning purposes only