» » »

Glow Bass - Hillsongs

Artists:  A B C D E F G H I J K L M N O P Q R S T U V W X Y Z # 

Glow Bass

(ver. 1) Click to play this song!
4/5 (4 votes)
    Glow lessons Tabs too difficult? Try these video lessons and learn fast
                Intro/Verse 1/ Verse 2

G |-------------------------------------------------------------------------|
D |----------------------------------11--9--------9-11--9-------9--11--9----|
A |-7--9--11--7---12----11--7--9--11--------4--11---------0--11-----------7-|
E |-------------------------------------------------------------------------|

Pre -Chorus:
G |-------4------------6----------------------------------------------------|
D |-----4---4--------6---6--------------------------------------------------|
A |-2-2-------2--4-4-------4------------------------------------------------|
E |-------------------------------------------------------------------------|


   G |----------------------------------------------------------------------|
   D |----------------------------------------------------------------------|
   A |-7--9--11--7--12--11-7-8-11-7-6-2--4---7--9--11--9--0--7--9--11--9--7-|
   E |----------------------------------------------------------=-----------|

These are most probably the right tab,i tabbed it out myself while watching a you tube 
find this bass tab anywhere online!
Submit corrections

↑ Back to top | Tablatures and chords for acoustic guitar and electric guitar, ukulele, drums are parodies/interpretations of the original songs. You may use it for private study, scholarship, research or language learning purposes only