» » »

Hillsongs - For All Youve Done Tabs

Artists:  A B C D E F G H I J K L M N O P Q R S T U V W X Y Z # 

For All Youve Done Tabs

(ver. 1) Click to play this song!
Hillsongs
 Rating:
4/5 (4 votes)

 For All Youve Done lessons Tabs too difficult? Try these video lessons and learn fast
 
                FOR ALL YOU'VE DONE
Hillsong Australia

Guitar 1: Acoustic Guitar
Guitar 2: Electric Guitar
Tabs only for 2 guitars:
Intro:
 Repeat 4 times
 Guitar 1:                  Guitar 2:
  E             Esus         E            Esus 
|-----0--0------0------0--|--4--4--4--4-------------------|
|-----0--0------0----0----|--5--5--5--5--5--5--5--5-------|
|--1--1--1--1---2--2------|--4--4--4--4--4--4--4--4-------|
|--2--2--2--2---2---------|--6--6--6--6--7--7--7--7-------|
|--2--------2-------------|--7--7--7--7--0--0--0--0-------|
|--0--------0-------------|--0--0--0--0-------------------|
Verse:
 Guitar 1:                  Guitar 2:
  E             Esus         E            Esus 
|-----0--0------0------0--|--4--4--4--4-------------------|
|-----0--0------0----0----|--5--5--5--5--5--5--5--5-------|
|--1--1--1--1---2--2------|--4--4--4--4--4--4--4--4-------|
|--2--2--2--2---2---------|--6--6--6--6--7--7--7--7-------|
|--2--------2-------------|--7--7--7--7--0--0--0--0-------|
|--0--------0-------------|--0--0--0--0-------------------|
 My Jesus, Redeemer,lifted me from the miry clay
 Guitar 1:                  Guitar 2:
  E             Esus         E            Esus 
|-----0--0------0------0--|--4--4--4--4-------------------|
|-----0--0------0----0----|--5--5--5--5--5--5--5--5-------|
|--1--1--1--1---2--2------|--4--4--4--4--4--4--4--4-------|
|--2--2--2--2---2---------|--6--6--6--6--7--7--7--7-------|
|--2--------2-------------|--7--7--7--7--0--0--0--0-------|
|--0--------0-------------|--0--0--0--0-------------------|
 Almighty, forever, I will never be the same
Pre-Chorus:
 Guitar 1: 
 Esus          C#m7                A 
|-0---0---0---0--4---4---4---4------0--0--0--0------------|
|-0---0---0---0--5---5---5---5------2--2--2--2------------|
|-2---2---2---2--4---4---4---4------2--2--2--2------------|
|-2---2---2---2--6---6---6---6------2--2--2--2------------|
|-2---2---2---2--4---4---4---4------0--0--0--0------------|
|-0---0---0---0-------------------------------------------| 
| Guitar 2:                                               | 
|---------------4---4---4---4---4---0--0--0--0------------|
|--5--5--5--5---5---5---5---5---5---2--2--2--2------------|
|--4--4--4--4---4---4---4---4---4---2--2--2--2------------|
|--7--7--7--7---6---6---6---6---6---2--2--2--2------------|
|--0--0--0--0---4---4---4---4---4---0--0--0--0------------|
|---------------------------------------------------------| 
 Cause You came near from the everlasting
 Guitar 1:
  A               E                       B
|--0--0--0--0---------------------------------------------|
|--2--2--2--2---9--9--9--9---9---9---9---4--4--4--4-------|
|--2--2--2--2---9--9--9--9---9---9---9---4--4--4--4-------|
|--2--2--2--2---9--9--9--9---9---9---9---4--4--4--4-------|
|--0--0--0--0---7--7--7--7---7---7---7---2--2--2--2-------|
|---------------------------------------------------------| 
| Guitar 2:                                               |
|---------------12-12-12-12--10-10-10---------------------|
|----------------9--9--9--9---9--9--9---12----------------|
|---------------------------------------11----------------|
|---------------------------------------------------------|
|---------------------------------------------------------|
|---------------------------------------------------------|
  To the world we live, the Father's only Son
Chorus:
 Guitar 1:
   E              B/D#        A/C#        B
|--0---0---0---0------------------------------------------|
|--0---0---0---0--4--4--4--4--2--2--2--2--4--4--4--4------|
|--1---1---1---1--4--4--4--4--2--2--2--2--4--4--4--4------|
|--2---2---2---2--4--4--4--4--2--2--2--2--4--4--4--4------|
|--2---2---2---2--6--6--6--6--4--4--4--4--2--2--2--2------|
|--0---0---0---0------------------------------------------| 
| Guitar 2:                                               |
|---------------------------------------------------------|
|---------------------------------------------------------|
|--9---9---9---9--8--8--8--8--6--6--6--6--8--8--8--8------|
|--9---9---9---9--9--9--9--9--7--7--7--7--9--9--9--9------|
|--7---7---7---7--9--9--9--9--7--7--7--7--9--9--9--9------|
|---------------------------------------------------------| 
 You lived and You died, You rose again on high
   E              B/D#        A/C#        B
 Guitar 1:
|--0---0---0---0------------------------------------------|
|--0---0---0---0--4--4--4--4--2--2--2--2--4--4--4--4------|
|--1---1---1---1--4--4--4--4--2--2--2--2--4--4--4--4------|
|--2---2---2---2--4--4--4--4--2--2--2--2--4--4--4--4------|
|--2---2---2---2--6--6--6--6--4--4--4--4--2--2--2--2------|
|--0---0---0---0------------------------------------------| 
| Guitar 2:                                               |
|---------------------------------------------------------|
|---------------------------------------------------------|
|--9---9---9---9--8--8--8--8--6--6--6--6--8--8--8--8------|
|--9---9---9---9--9--9--9--9--7--7--7--7--9--9--9--9------|
|--7---7---7---7--9--9--9--9--7--7--7--7--9--9--9--9------|
|---------------------------------------------------------| 
 You opened the way, for the world to live again
 Guitar 1:                  2X
|-------------------------|-------------------------------|
|--2--2--2--2--4--4--4--4-|-0--0--0--0--0--0--0--0--------|
|--2--2--2--2--4--4--4--4-|-1--1--1--1--2--2--2--2--------|
|--2--2--2--2--4--4--4--4-|-2--2--2--2--2--2--2--2--------|
|--0--0--0--0--2--2--2--2-|-2--2--2--2--2--2--2--2--------|
|-------------------------|-0--0--0--0--0--0--0--0--------|
|Guitar 2:  2nd time going to verse again                 |                                             
|-----------------------------------------12--------------|
|---------------------------------9-9/10-----10-9--7--9---|
|---------------------------------------------------------|
|---------------------------------------------------------|
|---------------------------------------------------------|
|---------------------------------------------------------| 
 Hallelujah, for all You've done
Repeat Verse, Pre-Chorus 
Then Chorus for 2x's
 Guitar 1:  
                     C#m                 A
|---------------------4--4--4--4--4--4---0--0--0--0-------|
|---------------------5--5--5--5--5--5---2--2--2--2-------|
|---------------------4--4--4--4--4--4---2--2--2--2-------|
|---------------------6--6--6--6--6--6---2--2--2--2-------|
|---------------------4--4--4--4--4--4---0--0--0--0-------|
|---------------------------------------------------------| 
 ......for all You've done,            Hallelujah
 Guitar 2: not sure with this guitar lines...
|---------------------------------------------------------|
|----------------------------------------9~~-9~~\---------|
|---------------------------------------------------------|
|---------------------------------------------------------|
|---------------------------------------------------------|
|---------------------------------------------------------|
  Guitar 1:
   E                   B
|---------------------2--2--2--2--2--2-----------|
|--5--5--5--5--5--5---4--4--4--4--4--4-----------|
|--4--4--4--4--4--4---4--4--4--4--4--4-----------|
|--2--2--2--2--2--2---4--4--4--4--4--4-----------|
|--2--2--2--2--2--2---2--2--2--2--2--2-----------|
|--0--0--0--0--0--0------------------------------|
| Guitar 2:                                      |
|------------------------------------------------|
|----------9~--9---------------------------------|
|--/9~--9~-------9-------------------------------|
|------------------9-------------9~--------------|
|--------------------7/9--9--11------------------|
|------------------------------------------------|
 Guitar 1 do same chords pattern:
 Guitar 2:  repeat 3x's
|---12--12--12--12--11--11--11--11---------------|
|----9---9---9---9---9---9---9---9---12----------|
|------------------------------------------------|
|------------------------------------------------|
|------------------------------------------------|
|------------------------------------------------|
 Guitar 1 do same chords pattern:
 Guitar 2:
|-16-16-16-16-14-14-14-14-12-12-12-12-11-11-12-12-11-|
|-------------------------------------------------12-|
|-------------------------------------------------11-|
|----------------------------------------------------|
|----------------------------------------------------|
|----------------------------------------------------|
 Repeat Pre-Chorus here:
 Keyboard arranged for guitar:
|----------------12-12-11------------12-12-11--------|
|-------------------------12------------------12-----|
|----------------------------13------------------14--|
|----------------------------------------------------|
|----------------------------------------------------|
|----------------------------------------------------|
  Cause You came near, from the everlasting
|--------------12-12-11-----------------12-12-11-----|
|----------------------12-----------------------12---|
|------------------------13-----------------------11-|
|----------------------------------------------------|
|----------------------------------------------------|
|----------------------------------------------------| 
 To the world we live, The father's only Son  
|----------------12-12-11------------12-12-11--------|
|-------------------------12------------------12-----|
|----------------------------13------------------14--|
|----------------------------------------------------|
|----------------------------------------------------|
|----------------------------------------------------|
  Cause You came near, from the everlasting
|----------------------16-16-14-12-11-12-11----------|
|-----------------------------------------12~--------|
|----------------------------------------------------|
|----------------------------------------------------|
|----------------------------------------------------|
|----------------------------------------------------| 
  To the world we live, The father's only Son  
Repeat Chorus: Bass Guitar Only:
|----------------------------------------------------|
|----------------------------------------------------|
|------9----------8--------4-------------2-----------|
|----------------------------------------------------| 
  You lived, You died, You rose again on high
|----------------------------------------------------|
|----------------------------------------------------|
|-----9---------8-----------4--------------2---------|
|----------------------------------------------------| 
 You opened the way for the world to live again
|-------------------------|-------------------------------|
|--2--2--2--2--4--4--4--4-|-0--0--0--0--0--0--0--0--------|
|--2--2--2--2--4--4--4--4-|-1--1--1--1--1--1--1--1--------|
|--2--2--2--2--4--4--4--4-|-2--2--2--2--2--2--2--2--------|
|--0--0--0--0--2--2--2--2-|-2--2--2--2--2--2--2--2--------|
|-------------------------|-0--0--0--0--0--0--0--0--------|
 Hallelujah for all You've done 
Chorus:
 Guitar 1:
   E              B/D#        A/C#        B
|--0---0---0---0------------------------------------------|
|--0---0---0---0--4--4--4--4--2--2--2--2--4--4--4--4------|
|--1---1---1---1--4--4--4--4--2--2--2--2--4--4--4--4------|
|--2---2---2---2--4--4--4--4--2--2--2--2--4--4--4--4------|
|--2---2---2---2--6--6--6--6--4--4--4--4--2--2--2--2------|
|--0---0---0---0------------------------------------------| 
| Guitar 2:                                               |
|---------------------------------------------------------|
|---------------------------------------------------------|
|--9---9---9---9--8--8--8--8--6--6--6--6--8--8--8--8------|
|--9---9---9---9--9--9--9--9--7--7--7--7--9--9--9--9------|
|--7---7---7---7--9--9--9--9--7--7--7--7--9--9--9--9------|
|---------------------------------------------------------| 
 You lived and You died, You rose again on high
   E              B/D#        A/C#        B
 Guitar 1:
|--0---0---0---0------------------------------------------|
|--0---0---0---0--4--4--4--4--2--2--2--2--4--4--4--4------|
|--1---1---1---1--4--4--4--4--2--2--2--2--4--4--4--4------|
|--2---2---2---2--4--4--4--4--2--2--2--2--4--4--4--4------|
|--2---2---2---2--6--6--6--6--4--4--4--4--2--2--2--2------|
|--0---0---0---0------------------------------------------| 
| Guitar 2:                                               |
|---------------------------------------------------------|
|---------------------------------------------------------|
|--9---9---9---9--8--8--8--8--6--6--6--6--8--8--8--8------|
|--9---9---9---9--9--9--9--9--7--7--7--7--9--9--9--9------|
|--7---7---7---7--9--9--9--9--7--7--7--7--9--9--9--9------|
|---------------------------------------------------------| 
 You opened the way, for the world to live again
 Guitar 1:                  
|-------------------------|-------------------------------|
|--2--2--2--2--4--4--4--4-|-0--0--0--0--0--0--0--0--------|
|--2--2--2--2--4--4--4--4-|-1--1--1--1--1--1--1--1--------|
|--2--2--2--2--4--4--4--4-|-2--2--2--2--2--2--2--2--------|
|--0--0--0--0--2--2--2--2-|-2--2--2--2--2--2--2--2--------|
|-------------------------|-0--0--0--0--0--0--0--0--------|
 Hallelujah, for all You've done
Repeat using same chords pattern except the last one(E)
Outro:
 C#m-B-A-B
 C#m-B-A-B-A 

It's not 100% accurate....i'm happy to receive any corrections...
Regards to Christian Rockers of South Cotabato..
            
Submit corrections


        For All Youve Done lessons Hard to play? Try these video lessons and learn fast For All Youve Done lessons
        
↑ Back to top | Tablatures and chords for acoustic guitar and electric guitar, ukulele, drums are parodies/interpretations of the original songs. You may use it for private study, scholarship, research or language learning purposes only