Home » H » Hikaru Utada »

Hikaru Utada - Prisoner Of Love Bass

Artists:  A B C D E F G H I J K L M N O P Q R S T U V W X Y Z # 

Prisoner Of Love Bass

(ver. 1) Click to play this song!
Hikaru Utada
 Rating:
4/5 (4 votes)
                -----------------------------------------------------------------------------
                             Prisoner of Love - Utada Hikaru
-----------------------------------------------------------------------------

Tuning: EADG

For the most part, the bass playing follows the same rhythm as the synthetic percussion 
in the background, so when in doubt, follow that.

Verse 1 - nothing played

Start at 0:44 (In terms of song structure,this section is the Pre-Chorus)
~ = let note ring out


G|---------------------------------------------------------------------------|
D|---------------------------------------------------------------------------|
A|-4-4--4-44~-----------------4-4--4-44~--------88-88~---4-4--4-44~----------|
E|--------------1-1--11-11~----------------1-1-------------------------------|

G|-------------------------------------------|
D|-------------------------------------------|
A|--------------4-4--4-44~-------------------|
E|-1-1--1-11~----------------8-8--88-88~-----|

Chorus

G|-----------------------------------------------------------------------|
D|-----------------------------------------------------------------------| x2
A|-4-4--4-44~---6-6--66-66~---3-3--3-33~---------------------------------|
E|-----------------------------------------1-1--11-11~-------------------|

Pre-Verse 1:23 nothing played

Verse 2 1:33

G|---------------------------------------------------------------------------|
D|---------------------------------------------------------------------------|
A|-8-8--8-88~---6-6--66-66~---4-4--4-44~---3-3--33-33~--6-8-8--8-88~---------|
E|---------------------------------------------------------------------------|

G|---------------------------------------------------------------------------|
D|---------------------------------------------------------------------------|
A|-6-6--66-66~---4-4--4-44~---3-3--33-33~-6----------------------------------|
E|---------------------------------------------------------------------------|

Pre-Chorus 1:53

Chorus 2:13

Pre-Chorus 2:33 This part is like a small verse, but played like the
Pre-Chorus nonetheless (8-8--88-88 x2)

Bridge 2:55 - nothing played (just violins, piano, and a real pretty voice)

Chorus 3:15-3:34 then again at 3:54 "Stay with me..." (Chorus x3) or until song ends

Enjoy!!
            
Submit corrections

↑ Back to top | Tablatures and chords for acoustic guitar and electric guitar, ukulele, drums are parodies/interpretations of the original songs. You may use it for private study, scholarship, research or language learning purposes only